  0
SECTION
  2
HEADER
  9
$ACADVER
  1
AC1009
  9
$INSBASE
 10
0.0
 20
0.0
 30
0.0
  9
$EXTMIN
 10
4.015093456951873
 20
-8.3448283543216064
 30
-0.000000000000013
  9
$EXTMAX
 10
42.624512120001597
 20
14.772296388797031
 30
0.0000000000000023
  9
$LIMMIN
 10
0.0
 20
0.0
  9
$LIMMAX
 10
12.0
 20
9.0
  9
$ORTHOMODE
 70
     0
  9
$REGENMODE
 70
     1
  9
$FILLMODE
 70
     1
  9
$QTEXTMODE
 70
     0
  9
$MIRRTEXT
 70
     1
  9
$DRAGMODE
 70
     2
  9
$LTSCALE
 40
0.5
  9
$OSMODE
 70
    37
  9
$ATTMODE
 70
     1
  9
$TEXTSIZE
 40
0.15
  9
$TRACEWID
 40
0.05
  9
$TEXTSTYLE
  7
STANDARD
  9
$CLAYER
  8
0
  9
$CELTYPE
  6
BYLAYER
  9
$CECOLOR
 62
   256
  9
$DIMSCALE
 40
1.0
  9
$DIMASZ
 40
0.18
  9
$DIMEXO
 40
0.0625
  9
$DIMDLI
 40
0.38
  9
$DIMRND
 40
0.0
  9
$DIMDLE
 40
0.0
  9
$DIMEXE
 40
0.18
  9
$DIMTP
 40
0.0
  9
$DIMTM
 40
0.0
  9
$DIMTXT
 40
0.18
  9
$DIMCEN
 40
0.09
  9
$DIMTSZ
 40
0.0
  9
$DIMTOL
 70
     0
  9
$DIMLIM
 70
     0
  9
$DIMTIH
 70
     1
  9
$DIMTOH
 70
     1
  9
$DIMSE1
 70
     0
  9
$DIMSE2
 70
     0
  9
$DIMTAD
 70
     0
  9
$DIMZIN
 70
     0
  9
$DIMBLK
  1

  9
$DIMASO
 70
     1
  9
$DIMSHO
 70
     1
  9
$DIMPOST
  1

  9
$DIMAPOST
  1

  9
$DIMALT
 70
     0
  9
$DIMALTD
 70
     2
  9
$DIMALTF
 40
25.399999999999999
  9
$DIMLFAC
 40
1.0
  9
$DIMTOFL
 70
     0
  9
$DIMTVP
 40
0.0
  9
$DIMTIX
 70
     0
  9
$DIMSOXD
 70
     0
  9
$DIMSAH
 70
     0
  9
$DIMBLK1
  1

  9
$DIMBLK2
  1

  9
$DIMSTYLE
  2
STANDARD
  9
$DIMCLRD
 70
     1
  9
$DIMCLRE
 70
     1
  9
$DIMCLRT
 70
     5
  9
$DIMTFAC
 40
1.0
  9
$DIMGAP
 40
0.09
  9
$LUNITS
 70
     2
  9
$LUPREC
 70
     4
  9
$SKETCHINC
 40
0.1
  9
$FILLETRAD
 40
0.0
  9
$AUNITS
 70
     0
  9
$AUPREC
 70
     0
  9
$MENU
  1
acad
  9
$ELEVATION
 40
0.0
  9
$PELEVATION
 40
0.0
  9
$THICKNESS
 40
0.0
  9
$LIMCHECK
 70
     0
  9
$BLIPMODE
 70
     0
  9
$CHAMFERA
 40
0.015
  9
$CHAMFERB
 40
0.015
  9
$SKPOLY
 70
     0
  9
$TDCREATE
 40
2451449.6019576509
  9
$TDUPDATE
 40
2454116.292618264
  9
$TDINDWG
 40
2.9396919559999999
  9
$TDUSRTIMER
 40
2.9396914120000002
  9
$USRTIMER
 70
     1
  9
$ANGBASE
 50
0.0
  9
$ANGDIR
 70
     0
  9
$PDMODE
 70
     0
  9
$PDSIZE
 40
0.0
  9
$PLINEWID
 40
0.0
  9
$COORDS
 70
     1
  9
$SPLFRAME
 70
     0
  9
$SPLINETYPE
 70
     6
  9
$SPLINESEGS
 70
     8
  9
$ATTDIA
 70
     0
  9
$ATTREQ
 70
     1
  9
$HANDLING
 70
     1
  9
$HANDSEED
  5
28EA
  9
$SURFTAB1
 70
     6
  9
$SURFTAB2
 70
     6
  9
$SURFTYPE
 70
     6
  9
$SURFU
 70
     6
  9
$SURFV
 70
     6
  9
$UCSNAME
  2

  9
$UCSORG
 10
0.0
 20
0.0
 30
0.0
  9
$UCSXDIR
 10
1.0
 20
0.0
 30
0.0
  9
$UCSYDIR
 10
0.0
 20
1.0
 30
0.0
  9
$PUCSNAME
  2

  9
$PUCSORG
 10
0.0
 20
0.0
 30
0.0
  9
$PUCSXDIR
 10
1.0
 20
0.0
 30
0.0
  9
$PUCSYDIR
 10
0.0
 20
1.0
 30
0.0
  9
$USERI1
 70
     0
  9
$USERI2
 70
     0
  9
$USERI3
 70
     0
  9
$USERI4
 70
     0
  9
$USERI5
 70
     0
  9
$USERR1
 40
0.0
  9
$USERR2
 40
0.0
  9
$USERR3
 40
0.0
  9
$USERR4
 40
0.0
  9
$USERR5
 40
0.0
  9
$WORLDVIEW
 70
     1
  9
$SHADEDGE
 70
     3
  9
$SHADEDIF
 70
    70
  9
$TILEMODE
 70
     1
  9
$MAXACTVP
 70
    48
  9
$PLIMCHECK
 70
     0
  9
$PEXTMIN
 10
1.0000000000000000E+020
 20
1.0000000000000000E+020
 30
1.0000000000000000E+020
  9
$PEXTMAX
 10
-1.0000000000000000E+020
 20
-1.0000000000000000E+020
 30
-1.0000000000000000E+020
  9
$PLIMMIN
 10
0.0
 20
0.0
  9
$PLIMMAX
 10
12.0
 20
9.0
  9
$UNITMODE
 70
     0
  9
$VISRETAIN
 70
     1
  9
$PLINEGEN
 70
     0
  9
$PSLTSCALE
 70
     1
  0
ENDSEC
  0
SECTION
  2
TABLES
  0
TABLE
  2
VPORT
 70
     2
  0
VPORT
  2
*ACTIVE
 70
     0
 10
0.0
 20
0.0
 11
1.0
 21
1.0
 12
23.319802788476739
 22
3.2137340172377118
 13
0.0
 23
0.0
 14
0.5
 24
0.5
 15
0.5
 25
0.5
 16
0.0
 26
0.0
 36
1.0
 17
0.0
 27
0.0
 37
0.0
 40
25.251319833866852
 41
1.5366795366795361
 42
50.0
 43
0.0
 44
0.0
 50
0.0
 51
0.0
 71
     0
 72
   100
 73
     1
 74
     1
 75
     0
 76
     0
 77
     0
 78
     0
  0
ENDTAB
  0
TABLE
  2
LTYPE
 70
    46
  0
LTYPE
  2
CONTINUOUS
 70
     0
  3
Solid line
 72
    65
 73
     0
 40
0.0
  0
LTYPE
  2
ACAD_ISO02W100
 70
     0
  3
ISO dash __ __ __ __ __ __ __ __ __ __ __ __ __
 72
    65
 73
     2
 40
15.0
 49
12.0
 49
-3.0
  0
LTYPE
  2
ACAD_ISO03W100
 70
     0
  3
ISO dash space __    __    __    __    __    __
 72
    65
 73
     2
 40
30.0
 49
12.0
 49
-18.0
  0
LTYPE
  2
ACAD_ISO04W100
 70
     0
  3
ISO long-dash dot ____ . ____ . ____ . ____ . _
 72
    65
 73
     4
 40
30.5
 49
24.0
 49
-3.0
 49
0.5
 49
-3.0
  0
LTYPE
  2
ACAD_ISO05W100
 70
     0
  3
ISO long-dash double-dot ____ .. ____ .. ____ .
 72
    65
 73
     6
 40
34.0
 49
24.0
 49
-3.0
 49
0.5
 49
-3.0
 49
0.5
 49
-3.0
  0
LTYPE
  2
ACAD_ISO06W100
 70
     0
  3
ISO long-dash triple-dot ____ ... ____ ... ____
 72
    65
 73
     8
 40
37.5
 49
24.0
 49
-3.0
 49
0.5
 49
-3.0
 49
0.5
 49
-3.0
 49
0.5
 49
-3.0
  0
LTYPE
  2
ACAD_ISO07W100
 70
     0
  3
ISO dot . . . . . . . . . . . . . . . . . . . .
 72
    65
 73
     2
 40
3.5
 49
0.5
 49
-3.0
  0
LTYPE
  2
ACAD_ISO08W100
 70
     0
  3
ISO long-dash short-dash ____ __ ____ __ ____ _
 72
    65
 73
     4
 40
36.0
 49
24.0
 49
-3.0
 49
6.0
 49
-3.0
  0
LTYPE
  2
ACAD_ISO09W100
 70
     0
  3
ISO long-dash double-short-dash ____ __ __ ____
 72
    65
 73
     6
 40
45.0
 49
24.0
 49
-3.0
 49
6.0
 49
-3.0
 49
6.0
 49
-3.0
  0
LTYPE
  2
ACAD_ISO10W100
 70
     0
  3
ISO dash dot __ . __ . __ . __ . __ . __ . __ .
 72
    65
 73
     4
 40
18.5
 49
12.0
 49
-3.0
 49
0.5
 49
-3.0
  0
LTYPE
  2
ACAD_ISO11W100
 70
     0
  3
ISO double-dash dot __ __ . __ __ . __ __ . __ 
 72
    65
 73
     6
 40
33.5
 49
12.0
 49
-3.0
 49
12.0
 49
-3.0
 49
0.5
 49
-3.0
  0
LTYPE
  2
ACAD_ISO12W100
 70
     0
  3
ISO dash double-dot __ . . __ . . __ . . __ . .
 72
    65
 73
     6
 40
22.0
 49
12.0
 49
-3.0
 49
0.5
 49
-3.0
 49
0.5
 49
-3.0
  0
LTYPE
  2
ACAD_ISO13W100
 70
     0
  3
ISO double-dash double-dot __ __ . . __ __ . . 
 72
    65
 73
     8
 40
37.0
 49
12.0
 49
-3.0
 49
12.0
 49
-3.0
 49
0.5
 49
-3.0
 49
0.5
 49
-3.0
  0
LTYPE
  2
ACAD_ISO14W100
 70
     0
  3
ISO dash triple-dot __ . . . __ . . . __ . . . 
 72
    65
 73
     8
 40
25.5
 49
12.0
 49
-3.0
 49
0.5
 49
-3.0
 49
0.5
 49
-3.0
 49
0.5
 49
-3.0
  0
LTYPE
  2
ACAD_ISO15W100
 70
     0
  3
ISO double-dash triple-dot __ __ . . . __ __ . 
 72
    65
 73
    10
 40
40.499999999999993
 49
12.0
 49
-3.0
 49
12.0
 49
-3.0
 49
0.5
 49
-3.0
 49
0.5
 49
-3.0
 49
0.5
 49
-3.0
  0
LTYPE
  2
BATTING
 70
     0
  3
Batting SSSSSSSSSSSSSSSSSSSSSSSSSSSSSSSSSSSSSSS
 72
    65
 73
     4
 40
0.4001000000000002
 49
0.0001
 49
-0.1
 49
-0.2
 49
-0.1
  0
LTYPE
  2
BORDER
 70
     0
  3
Border __ __ . __ __ . __ __ . __ __ . __ __ .
 72
    65
 73
     6
 40
1.75
 49
0.5
 49
-0.25
 49
0.5
 49
-0.25
 49
0.0
 49
-0.25
  0
LTYPE
  2
BORDER2
 70
     0
  3
Border (.5x) __.__.__.__.__.__.__.__.__.__.__.
 72
    65
 73
     6
 40
0.875
 49
0.25
 49
-0.125
 49
0.25
 49
-0.125
 49
0.0
 49
-0.125
  0
LTYPE
  2
BORDERX2
 70
     0
  3
Border (2x) ____  ____  .  ____  ____  .  ___
 72
    65
 73
     6
 40
3.5
 49
1.0
 49
-0.5
 49
1.0
 49
-0.5
 49
0.0
 49
-0.5
  0
LTYPE
  2
CENTER
 70
     0
  3
Center ____ _ ____ _ ____ _ ____ _ ____ _ ____
 72
    65
 73
     4
 40
2.0
 49
1.25
 49
-0.25
 49
0.25
 49
-0.25
  0
LTYPE
  2
CENTER2
 70
     0
  3
Center (.5x) ___ _ ___ _ ___ _ ___ _ ___ _ ___
 72
    65
 73
     4
 40
1.125
 49
0.75
 49
-0.125
 49
0.125
 49
-0.125
  0
LTYPE
  2
CENTERX2
 70
     0
  3
Center (2x) ________  __  ________  __  _____
 72
    65
 73
     4
 40
4.0
 49
2.5
 49
-0.5
 49
0.5
 49
-0.5
  0
LTYPE
  2
DASHDOT
 70
     0
  3
Dash dot __ . __ . __ . __ . __ . __ . __ . __
 72
    65
 73
     4
 40
1.0
 49
0.5
 49
-0.25
 49
0.0
 49
-0.25
  0
LTYPE
  2
DASHDOT2
 70
     0
  3
Dash dot (.5x) _._._._._._._._._._._._._._._.
 72
    65
 73
     4
 40
0.5
 49
0.25
 49
-0.125
 49
0.0
 49
-0.125
  0
LTYPE
  2
DASHDOTX2
 70
     0
  3
Dash dot (2x) ____  .  ____  .  ____  .  ___
 72
    65
 73
     4
 40
2.0
 49
1.0
 49
-0.5
 49
0.0
 49
-0.5
  0
LTYPE
  2
DASHED
 70
     0
  3
Dashed __ __ __ __ __ __ __ __ __ __ __ __ __ _
 72
    65
 73
     2
 40
0.75
 49
0.5
 49
-0.25
  0
LTYPE
  2
DASHED2
 70
     0
  3
Dashed (.5x) _ _ _ _ _ _ _ _ _ _ _ _ _ _ _ _ _
 72
    65
 73
     2
 40
0.375
 49
0.25
 49
-0.125
  0
LTYPE
  2
DASHEDX2
 70
     0
  3
Dashed (2x) ____  ____  ____  ____  ____  ___
 72
    65
 73
     2
 40
1.5
 49
1.0
 49
-0.5
  0
LTYPE
  2
DIVIDE
 70
     0
  3
Divide ____ . . ____ . . ____ . . ____ . . ____
 72
    65
 73
     6
 40
1.25
 49
0.5
 49
-0.25
 49
0.0
 49
-0.25
 49
0.0
 49
-0.25
  0
LTYPE
  2
DIVIDE2
 70
     0
  3
Divide (.5x) __..__..__..__..__..__..__..__.._
 72
    65
 73
     6
 40
0.625
 49
0.25
 49
-0.125
 49
0.0
 49
-0.125
 49
0.0
 49
-0.125
  0
LTYPE
  2
DIVIDEX2
 70
     0
  3
Divide (2x) ________  .  .  ________  .  .  _
 72
    65
 73
     6
 40
2.5
 49
1.0
 49
-0.5
 49
0.0
 49
-0.5
 49
0.0
 49
-0.5
  0
LTYPE
  2
DOT
 70
     0
  3
Dot . . . . . . . . . . . . . . . . . . . . . .
 72
    65
 73
     2
 40
0.25
 49
0.0
 49
-0.25
  0
LTYPE
  2
DOT2
 70
     0
  3
Dot (.5x) .....................................
 72
    65
 73
     2
 40
0.125
 49
0.0
 49
-0.125
  0
LTYPE
  2
DOTX2
 70
     0
  3
Dot (2x) .  .  .  .  .  .  .  .  .  .  .  .  . 
 72
    65
 73
     2
 40
0.5
 49
0.0
 49
-0.5
  0
LTYPE
  2
FENCELINE1
 70
     0
  3
Fenceline circle ----0-----0----0-----0----0---
 72
    65
 73
     4
 40
1.45
 49
0.25
 49
-0.1
 49
-0.1
 49
1.0
  0
LTYPE
  2
FENCELINE2
 70
     0
  3
Fenceline square ----[]-----[]----[]-----[]----
 72
    65
 73
     4
 40
1.45
 49
0.25
 49
-0.1
 49
-0.1
 49
1.0
  0
LTYPE
  2
GAS_LINE
 70
     0
  3
Gas line ----GAS----GAS----GAS----GAS----GAS---
 72
    65
 73
     3
 40
0.95
 49
0.5
 49
-0.2
 49
-0.25
  0
LTYPE
  2
HIDDEN
 70
     0
  3
Hidden __ __ __ __ __ __ __ __ __ __ __ __ __ _
 72
    65
 73
     2
 40
0.375
 49
0.25
 49
-0.125
  0
LTYPE
  2
HIDDEN2
 70
     0
  3
Hidden (.5x) _ _ _ _ _ _ _ _ _ _ _ _ _ _ _ _ _
 72
    65
 73
     2
 40
0.1875
 49
0.125
 49
-0.0625
  0
LTYPE
  2
HIDDENX2
 70
     0
  3
Hidden (2x) ____ ____ ____ ____ ____ ____ ____
 72
    65
 73
     2
 40
0.75
 49
0.5
 49
-0.25
  0
LTYPE
  2
HOT_WATER_SUPPLY
 70
     0
  3
Hot water supply ---- HW ---- HW ---- HW ----
 72
    65
 73
     3
 40
0.9
 49
0.5
 49
-0.2
 49
-0.2
  0
LTYPE
  2
PHANTOM
 70
     0
  3
Phantom ______  __  __  ______  __  __  ______
 72
    65
 73
     6
 40
2.5
 49
1.25
 49
-0.25
 49
0.25
 49
-0.25
 49
0.25
 49
-0.25
  0
LTYPE
  2
PHANTOM2
 70
     0
  3
Phantom (.5x) ___ _ _ ___ _ _ ___ _ _ ___ _ _
 72
    65
 73
     6
 40
1.25
 49
0.625
 49
-0.125
 49
0.125
 49
-0.125
 49
0.125
 49
-0.125
  0
LTYPE
  2
PHANTOMX2
 70
     0
  3
Phantom (2x) ____________    ____    ____   _
 72
    65
 73
     6
 40
5.0
 49
2.5
 49
-0.5
 49
0.5
 49
-0.5
 49
0.5
 49
-0.5
  0
LTYPE
  2
TRACKS
 70
     0
  3
Tracks -|-|-|-|-|-|-|-|-|-|-|-|-|-|-|-|-|-|-|-|
 72
    65
 73
     2
 40
0.3
 49
0.15
 49
0.15
  0
LTYPE
  2
ZIGZAG
 70
     0
  3
Zig zag /\/\/\/\/\/\/\/\/\/\/\/\/\/\/\/\/\/\/\/
 72
    65
 73
     4
 40
0.8001000000000001
 49
0.0001
 49
-0.2
 49
-0.4
 49
-0.2
  0
ENDTAB
  0
TABLE
  2
LAYER
 70
    11
  0
LAYER
  2
0
 70
     0
 62
     7
  6
CONTINUOUS
  0
LAYER
  2
BC
 70
     0
 62
     5
  6
CONTINUOUS
  0
LAYER
  2
CC
 70
     0
 62
     4
  6
CONTINUOUS
  0
LAYER
  2
GC
 70
     0
 62
     3
  6
CONTINUOUS
  0
LAYER
  2
MC
 70
     0
 62
     6
  6
CONTINUOUS
  0
LAYER
  2
TEXT
 70
     0
 62
     5
  6
CONTINUOUS
  0
LAYER
  2
GCL
 70
     0
 62
     3
  6
CENTER
  0
LAYER
  2
MCL
 70
     0
 62
     6
  6
CENTER
  0
LAYER
  2
DIM
 70
     0
 62
     1
  6
CONTINUOUS
  0
LAYER
  2
GH
 70
     0
 62
     3
  6
HIDDEN
  0
LAYER
  2
DEFPOINTS
 70
     0
 62
     7
  6
CONTINUOUS
  0
ENDTAB
  0
TABLE
  2
STYLE
 70
     2
  0
STYLE
  2
STANDARD
 70
     0
 40
0.0
 41
1.0
 50
0.0
 71
     0
 42
0.15
  3
txt
  4

  0
STYLE
  2

 70
     1
 40
0.0
 41
1.0
 50
0.0
 71
     0
 42
0.2
  3
ltypeshp.shx
  4

  0
ENDTAB
  0
TABLE
  2
VIEW
 70
     0
  0
ENDTAB
  0
TABLE
  2
UCS
 70
     0
  0
ENDTAB
  0
TABLE
  2
APPID
 70
     1
  0
APPID
  2
ACAD
 70
     0
  0
ENDTAB
  0
TABLE
  2
DIMSTYLE
 70
     1
  0
DIMSTYLE
  2
STANDARD
 70
     0
  3

  4

  5

  6

  7

 40
1.0
 41
0.18
 42
0.0625
 43
0.38
 44
0.18
 45
0.0
 46
0.0
 47
0.0
 48
0.0
140
0.18
141
0.09
142
0.0
143
25.399999999999999
144
1.0
145
0.0
146
1.0
147
0.09
 71
     0
 72
     0
 73
     1
 74
     1
 75
     0
 76
     0
 77
     0
 78
     0
170
     0
171
     2
172
     0
173
     0
174
     0
175
     0
176
     0
177
     0
178
     0
  0
ENDTAB
  0
ENDSEC
  0
SECTION
  2
BLOCKS
  0
BLOCK
  8
0
  2
$MODEL_SPACE
 70
     0
 10
0.0
 20
0.0
 30
0.0
  3
$MODEL_SPACE
  1

  0
ENDBLK
  5
2522
  8
0
  0
BLOCK
 67
     1
  8
0
  2
$PAPER_SPACE
 70
     0
 10
0.0
 20
0.0
 30
0.0
  3
$PAPER_SPACE
  1

  0
ENDBLK
  5
251E
 67
     1
  8
0
  0
BLOCK
  8
0
  2
*X2
 70
     1
 10
0.0
 20
0.0
 30
0.0
  3
*X2
  1

  0
LINE
  5
21DE
  8
0
 62
     0
 10
13.31249999251045
 20
-5.062500006039576
 30
0.0
 11
13.27935436214233
 21
-5.029354375671458
 31
0.0
  0
LINE
  5
21DF
  8
0
 62
     0
 10
13.124999992825069
 20
-5.062500006039576
 30
0.0
 11
13.09185436245696
 21
-5.029354375671458
 31
0.0
  0
LINE
  5
21E0
  8
0
 62
     0
 10
13.33828287784552
 20
-5.2757828910600271
 30
0.0
 11
13.31249999304077
 21
-5.2500000062552772
 31
0.0
  0
LINE
  5
21E1
  8
0
 62
     0
 10
12.937499993139699
 20
-5.0625000060395751
 30
0.0
 11
12.90435436277159
 21
-5.0293543756714572
 31
0.0
  0
LINE
  5
21E2
  8
0
 62
     0
 10
13.15814562372352
 20
-5.2831456366233951
 30
0.0
 11
13.1249999933554
 21
-5.2500000062552763
 31
0.0
  0
LINE
  5
21E3
  8
0
 62
     0
 10
13.3124999935711
 20
-5.437500006470974
 30
0.0
 11
13.27935436320298
 21
-5.4043543761028561
 31
0.0
  0
LINE
  5
21E4
  8
0
 62
     0
 10
12.74999999345434
 20
-5.0625000060395751
 30
0.0
 11
12.71685436308622
 21
-5.0293543756714572
 31
0.0
  0
LINE
  5
21E5
  8
0
 62
     0
 10
12.97064562403815
 20
-5.2831456366233951
 30
0.0
 11
12.937499993670039
 21
-5.2500000062552763
 31
0.0
  0
LINE
  5
21E6
  8
0
 62
     0
 10
13.12499999388573
 20
-5.437500006470974
 30
0.0
 11
13.091854363517619
 21
-5.4043543761028561
 31
0.0
  0
LINE
  5
21E7
  8
0
 62
     0
 10
13.33828287784552
 20
-5.6507828904307642
 30
0.0
 11
13.312499994101421
 21
-5.6250000066866752
 31
0.0
  0
LINE
  5
21E8
  8
0
 62
     0
 10
12.56249999376897
 20
-5.0625000060395751
 30
0.0
 11
12.52935436340085
 21
-5.0293543756714572
 31
0.0
  0
LINE
  5
21E9
  8
0
 62
     0
 10
12.78314562435278
 20
-5.2831456366233951
 30
0.0
 11
12.74999999398467
 21
-5.2500000062552763
 31
0.0
  0
LINE
  5
21EA
  8
0
 62
     0
 10
12.937499994200371
 20
-5.437500006470974
 30
0.0
 11
12.904354363832249
 21
-5.4043543761028561
 31
0.0
  0
LINE
  5
21EB
  8
0
 62
     0
 10
13.15814562478419
 20
-5.658145637054794
 30
0.0
 11
13.12499999441607
 21
-5.6250000066866752
 31
0.0
  0
LINE
  5
21EC
  8
0
 62
     0
 10
13.31249999463177
 20
-5.8125000069023729
 30
0.0
 11
13.27935436426365
 21
-5.7793543765342541
 31
0.0
  0
LINE
  5
21ED
  8
0
 62
     0
 10
12.3749999940836
 20
-5.0625000060395751
 30
0.0
 11
12.341854363715481
 21
-5.0293543756714572
 31
0.0
  0
LINE
  5
21EE
  8
0
 62
     0
 10
12.59564562466741
 20
-5.2831456366233951
 30
0.0
 11
12.5624999942993
 21
-5.2500000062552763
 31
0.0
  0
LINE
  5
21EF
  8
0
 62
     0
 10
12.74999999451499
 20
-5.437500006470974
 30
0.0
 11
12.716854364146879
 21
-5.4043543761028561
 31
0.0
  0
LINE
  5
21F0
  8
0
 62
     0
 10
12.97064562509882
 20
-5.658145637054794
 30
0.0
 11
12.93749999473069
 21
-5.6250000066866752
 31
0.0
  0
LINE
  5
21F1
  8
0
 62
     0
 10
13.1249999949464
 20
-5.8125000069023729
 30
0.0
 11
13.091854364578269
 21
-5.7793543765342541
 31
0.0
  0
LINE
  5
21F2
  8
0
 62
     0
 10
13.33828287784552
 20
-6.0257828898015031
 30
0.0
 11
13.31249999516209
 21
-6.0000000071180732
 31
0.0
  0
LINE
  5
21F3
  8
0
 62
     0
 10
12.18749999439823
 20
-5.0625000060395751
 30
0.0
 11
12.17178593388225
 21
-5.0467859455235971
 31
0.0
  0
LINE
  5
21F4
  8
0
 62
     0
 10
12.408145624982041
 20
-5.2831456366233951
 30
0.0
 11
12.37499999461393
 21
-5.2500000062552763
 31
0.0
  0
LINE
  5
21F5
  8
0
 62
     0
 10
12.56249999482962
 20
-5.437500006470974
 30
0.0
 11
12.52935436446151
 21
-5.4043543761028561
 31
0.0
  0
LINE
  5
21F6
  8
0
 62
     0
 10
12.78314562541345
 20
-5.658145637054794
 30
0.0
 11
12.74999999504533
 21
-5.6250000066866752
 31
0.0
  0
LINE
  5
21F7
  8
0
 62
     0
 10
12.93749999526103
 20
-5.8125000069023729
 30
0.0
 11
12.90435436489291
 21
-5.7793543765342541
 31
0.0
  0
LINE
  5
21F8
  8
0
 62
     0
 10
13.158145625844851
 20
-6.033145637486192
 30
0.0
 11
13.124999995476729
 21
-6.0000000071180732
 31
0.0
  0
LINE
  5
21F9
  8
0
 62
     0
 10
13.312499995692431
 20
-6.1875000073337718
 30
0.0
 11
13.2793543653243
 21
-6.154354376965653
 31
0.0
  0
LINE
  5
21FA
  8
0
 62
     0
 10
12.220645625296671
 20
-5.2831456366233951
 30
0.0
 11
12.18749999492856
 21
-5.2500000062552772
 31
0.0
  0
LINE
  5
21FB
  8
0
 62
     0
 10
12.374999995144259
 20
-5.4375000064709749
 30
0.0
 11
12.34185436477614
 21
-5.4043543761028561
 31
0.0
  0
LINE
  5
21FC
  8
0
 62
     0
 10
12.59564562572808
 20
-5.658145637054794
 30
0.0
 11
12.562499995359961
 21
-5.6250000066866761
 31
0.0
  0
LINE
  5
21FD
  8
0
 62
     0
 10
12.74999999557566
 20
-5.8125000069023747
 30
0.0
 11
12.71685436520754
 21
-5.7793543765342541
 31
0.0
  0
LINE
  5
21FE
  8
0
 62
     0
 10
12.970645626159479
 20
-6.0331456374861929
 30
0.0
 11
12.937499995791359
 21
-6.000000007118075
 31
0.0
  0
LINE
  5
21FF
  8
0
 62
     0
 10
13.124999996007061
 20
-6.1875000073337727
 30
0.0
 11
13.091854365638939
 21
-6.154354376965653
 31
0.0
  0
LINE
  5
2200
  8
0
 62
     0
 10
12.03314562561131
 20
-5.2831456366233951
 30
0.0
 11
11.99999999524319
 21
-5.2500000062552772
 31
0.0
  0
LINE
  5
2201
  8
0
 62
     0
 10
12.187499995458881
 20
-5.4375000064709749
 30
0.0
 11
12.15435436509077
 21
-5.4043543761028561
 31
0.0
  0
LINE
  5
2202
  8
0
 62
     0
 10
12.40814562604271
 20
-5.658145637054794
 30
0.0
 11
12.374999995674591
 21
-5.6250000066866761
 31
0.0
  0
LINE
  5
2203
  8
0
 62
     0
 10
12.56249999589029
 20
-5.8125000069023747
 30
0.0
 11
12.52935436552217
 21
-5.7793543765342541
 31
0.0
  0
LINE
  5
2204
  8
0
 62
     0
 10
12.7831456264741
 20
-6.0331456374861929
 30
0.0
 11
12.74999999610599
 21
-6.000000007118075
 31
0.0
  0
LINE
  5
2205
  8
0
 62
     0
 10
12.937499996321691
 20
-6.1875000073337727
 30
0.0
 11
12.904354365953569
 21
-6.154354376965653
 31
0.0
  0
LINE
  5
2206
  8
0
 62
     0
 10
11.99999999577352
 20
-5.4375000064709731
 30
0.0
 11
11.9668543654054
 21
-5.4043543761028552
 31
0.0
  0
LINE
  5
2207
  8
0
 62
     0
 10
12.22064562635734
 20
-5.658145637054794
 30
0.0
 11
12.187499995989221
 21
-5.6250000066866734
 31
0.0
  0
LINE
  5
2208
  8
0
 62
     0
 10
12.37499999620492
 20
-5.812500006902372
 30
0.0
 11
12.341854365836801
 21
-5.7793543765342541
 31
0.0
  0
LINE
  5
2209
  8
0
 62
     0
 10
12.595645626788739
 20
-6.033145637486192
 30
0.0
 11
12.56249999642062
 21
-6.0000000071180732
 31
0.0
  0
LINE
  5
220A
  8
0
 62
     0
 10
12.749999996636321
 20
-6.1875000073337709
 30
0.0
 11
12.716854366268191
 21
-6.154354376965653
 31
0.0
  0
LINE
  5
220B
  8
0
 62
     0
 10
12.033145626671971
 20
-5.658145637054794
 30
0.0
 11
11.999999996303851
 21
-5.6250000066866734
 31
0.0
  0
LINE
  5
220C
  8
0
 62
     0
 10
12.18749999651955
 20
-5.812500006902372
 30
0.0
 11
12.154354366151431
 21
-5.7793543765342541
 31
0.0
  0
LINE
  5
220D
  8
0
 62
     0
 10
12.408145627103369
 20
-6.033145637486192
 30
0.0
 11
12.37499999673525
 21
-6.0000000071180732
 31
0.0
  0
LINE
  5
220E
  8
0
 62
     0
 10
12.562499996950949
 20
-6.1875000073337709
 30
0.0
 11
12.52935436658283
 21
-6.154354376965653
 31
0.0
  0
LINE
  5
220F
  8
0
 62
     0
 10
11.99999999683418
 20
-5.8125000069023729
 30
0.0
 11
11.966854366466061
 21
-5.7793543765342541
 31
0.0
  0
LINE
  5
2210
  8
0
 62
     0
 10
12.220645627418
 20
-6.033145637486192
 30
0.0
 11
12.18749999704988
 21
-6.0000000071180732
 31
0.0
  0
LINE
  5
2211
  8
0
 62
     0
 10
12.35516947982831
 20
-6.1676694898964994
 30
0.0
 11
12.34185436689746
 21
-6.154354376965653
 31
0.0
  0
LINE
  5
2212
  8
0
 62
     0
 10
12.03314562773263
 20
-6.033145637486192
 30
0.0
 11
11.99999999736451
 21
-6.0000000071180732
 31
0.0
  0
LINE
  5
2213
  8
0
 62
     0
 10
13.3125
 20
-5.25
 30
0.0
 11
13.3125
 21
-5.0625
 31
0.0
  0
LINE
  5
2214
  8
0
 62
     0
 10
13.3125
 20
-5.625
 30
0.0
 11
13.3125
 21
-5.4375
 31
0.0
  0
LINE
  5
2215
  8
0
 62
     0
 10
13.3125
 20
-6.0
 30
0.0
 11
13.3125
 21
-5.8125
 31
0.0
  0
LINE
  5
2216
  8
0
 62
     0
 10
13.3125
 20
-6.2839773101130367
 30
0.0
 11
13.3125
 21
-6.1875
 31
0.0
  0
LINE
  5
2217
  8
0
 62
     0
 10
13.125
 20
-5.25
 30
0.0
 11
13.125
 21
-5.0625
 31
0.0
  0
LINE
  5
2218
  8
0
 62
     0
 10
13.125
 20
-5.625
 30
0.0
 11
13.125
 21
-5.4375
 31
0.0
  0
LINE
  5
2219
  8
0
 62
     0
 10
13.125
 20
-6.0
 30
0.0
 11
13.125
 21
-5.8125
 31
0.0
  0
LINE
  5
221A
  8
0
 62
     0
 10
13.125
 20
-6.2634306776195601
 30
0.0
 11
13.125
 21
-6.1875
 31
0.0
  0
LINE
  5
221B
  8
0
 62
     0
 10
12.9375
 20
-5.25
 30
0.0
 11
12.9375
 21
-5.0625
 31
0.0
  0
LINE
  5
221C
  8
0
 62
     0
 10
12.9375
 20
-5.625
 30
0.0
 11
12.9375
 21
-5.4375
 31
0.0
  0
LINE
  5
221D
  8
0
 62
     0
 10
12.9375
 20
-6.0
 30
0.0
 11
12.9375
 21
-5.8125
 31
0.0
  0
LINE
  5
221E
  8
0
 62
     0
 10
12.9375
 20
-6.2417985545871479
 30
0.0
 11
12.9375
 21
-6.1875
 31
0.0
  0
LINE
  5
221F
  8
0
 62
     0
 10
12.75
 20
-5.25
 30
0.0
 11
12.75
 21
-5.0625
 31
0.0
  0
LINE
  5
2220
  8
0
 62
     0
 10
12.75
 20
-5.625
 30
0.0
 11
12.75
 21
-5.4375
 31
0.0
  0
LINE
  5
2221
  8
0
 62
     0
 10
12.75
 20
-6.0
 30
0.0
 11
12.75
 21
-5.8125
 31
0.0
  0
LINE
  5
2222
  8
0
 62
     0
 10
12.75
 20
-6.2190787902445104
 30
0.0
 11
12.75
 21
-6.1875
 31
0.0
  0
LINE
  5
2223
  8
0
 62
     0
 10
12.5625
 20
-5.25
 30
0.0
 11
12.5625
 21
-5.0625
 31
0.0
  0
LINE
  5
2224
  8
0
 62
     0
 10
12.5625
 20
-5.625
 30
0.0
 11
12.5625
 21
-5.4375
 31
0.0
  0
LINE
  5
2225
  8
0
 62
     0
 10
12.5625
 20
-6.0
 30
0.0
 11
12.5625
 21
-5.8125
 31
0.0
  0
LINE
  5
2226
  8
0
 62
     0
 10
12.5625
 20
-6.1952691195594687
 30
0.0
 11
12.5625
 21
-6.1875
 31
0.0
  0
LINE
  5
2227
  8
0
 62
     0
 10
12.375
 20
-5.25
 30
0.0
 11
12.375
 21
-5.0625
 31
0.0
  0
LINE
  5
2228
  8
0
 62
     0
 10
12.375
 20
-5.625
 30
0.0
 11
12.375
 21
-5.4375
 31
0.0
  0
LINE
  5
2229
  8
0
 62
     0
 10
12.375
 20
-6.0
 30
0.0
 11
12.375
 21
-5.8125
 31
0.0
  0
LINE
  5
222A
  8
0
 62
     0
 10
12.1875
 20
-5.25
 30
0.0
 11
12.1875
 21
-5.0625
 31
0.0
  0
LINE
  5
222B
  8
0
 62
     0
 10
12.1875
 20
-5.625
 30
0.0
 11
12.1875
 21
-5.4375
 31
0.0
  0
LINE
  5
222C
  8
0
 62
     0
 10
12.1875
 20
-6.0
 30
0.0
 11
12.1875
 21
-5.8125
 31
0.0
  0
LINE
  5
222D
  8
0
 62
     0
 10
12.0
 20
-5.25
 30
0.0
 11
12.0
 21
-5.0716515391820911
 31
0.0
  0
LINE
  5
222E
  8
0
 62
     0
 10
12.0
 20
-5.625
 30
0.0
 11
12.0
 21
-5.4375
 31
0.0
  0
LINE
  5
222F
  8
0
 62
     0
 10
12.0
 20
-6.0
 30
0.0
 11
12.0
 21
-5.8125
 31
0.0
  0
ENDBLK
  5
2231
  8
0
  0
BLOCK
  8
0
  2
*X3
 70
     1
 10
0.0
 20
0.0
 30
0.0
  3
*X3
  1

  0
LINE
  5
2233
  8
0
 62
     0
 10
16.463282877845529
 20
-0.0552427172802011
 30
0.0
 11
16.024316802117291
 21
-0.055242717280201
 31
0.0
  0
LINE
  5
2234
  8
0
 62
     0
 10
16.463282877845529
 20
-0.2114927172802011
 30
0.0
 11
15.446191802117299
 21
-0.2114927172802009
 31
0.0
  0
LINE
  5
2235
  8
0
 62
     0
 10
16.463282877845529
 20
-0.367742717280201
 30
0.0
 11
15.21130425300869
 21
-0.3677427172802009
 31
0.0
  0
LINE
  5
2236
  8
0
 62
     0
 10
16.463282877845529
 20
-0.5239927172802013
 30
0.0
 11
15.42628849525298
 21
-0.5239927172802009
 31
0.0
  0
LINE
  5
2237
  8
0
 62
     0
 10
16.463282877845529
 20
-0.6802427172802013
 30
0.0
 11
15.64127273749728
 21
-0.6802427172802009
 31
0.0
  0
LINE
  5
2238
  8
0
 62
     0
 10
16.463282877845529
 20
-0.8364927172802008
 30
0.0
 11
15.85625697974158
 21
-0.8364927172802008
 31
0.0
  0
LINE
  5
2239
  8
0
 62
     0
 10
16.463282877845529
 20
-0.9927427172802008
 30
0.0
 11
16.071241221985879
 21
-0.9927427172802008
 31
0.0
  0
LINE
  5
223A
  8
0
 62
     0
 10
16.463282877845529
 20
-1.1489927172801999
 30
0.0
 11
16.286225464230171
 21
-1.1489927172801999
 31
0.0
  0
LINE
  5
223B
  8
0
 62
     0
 10
16.463282877845529
 20
-0.000000000000002
 30
0.0
 11
16.22871485605403
 21
-0.000000000000002
 31
0.0
  0
LINE
  5
223C
  8
0
 62
     0
 10
16.463282877845529
 20
-0.156250000000002
 30
0.0
 11
15.65058985605403
 21
-0.1562500000000019
 31
0.0
  0
LINE
  5
223D
  8
0
 62
     0
 10
16.463282877845529
 20
-0.312500000000002
 30
0.0
 11
15.13529584523909
 21
-0.3125000000000018
 31
0.0
  0
LINE
  5
223E
  8
0
 62
     0
 10
16.463282877845529
 20
-0.468750000000002
 30
0.0
 11
15.350280087483389
 21
-0.4687500000000019
 31
0.0
  0
LINE
  5
223F
  8
0
 62
     0
 10
16.463282877845529
 20
-0.6250000000000022
 30
0.0
 11
15.565264329727681
 21
-0.6250000000000019
 31
0.0
  0
LINE
  5
2240
  8
0
 62
     0
 10
16.463282877845529
 20
-0.7812500000000022
 30
0.0
 11
15.780248571971979
 21
-0.7812500000000019
 31
0.0
  0
LINE
  5
2241
  8
0
 62
     0
 10
16.463282877845529
 20
-0.9375000000000019
 30
0.0
 11
15.99523281421628
 21
-0.9375000000000019
 31
0.0
  0
LINE
  5
2242
  8
0
 62
     0
 10
16.463282877845529
 20
-1.0937500000000011
 30
0.0
 11
16.210217056460579
 21
-1.0937500000000011
 31
0.0
  0
LINE
  5
2243
  8
0
 62
     0
 10
16.463282877845529
 20
-1.2500000000000011
 30
0.0
 11
16.425201298704881
 21
-1.2500000000000011
 31
0.0
  0
ENDBLK
  5
2245
  8
0
  0
BLOCK
  8
0
  2
*U4
 70
     1
 10
0.0
 20
0.0
 30
0.0
  3
*U4
  1

  0
TEXT
  5
224C
  8
TEXT
 10
37.461200562672623
 20
-1.997228118649784
 30
0.0
 40
0.135
  1
SUB-FIN MEDIUM
  0
TEXT
  5
224D
  8
TEXT
 10
37.461200562672623
 20
-2.2222281186497841
 30
0.0
 40
0.135
  1
1/16 SHEET (2 OFF)
  0
ENDBLK
  5
224F
  8
0
  0
BLOCK
  8
0
  2
*U5
 70
     1
 10
0.0
 20
0.0
 30
0.0
  3
*U5
  1

  0
TEXT
  5
2251
  8
0
 62
     5
 10
26.897249406251429
 20
-0.0415078023494485
 30
0.0
 40
0.135
  1
SUB-FIN POSN.
  0
ENDBLK
  5
2253
  8
0
  0
BLOCK
  8
0
  2
*U6
 70
     1
 10
0.0
 20
0.0
 30
0.0
  3
*U6
  1

  0
TEXT
  5
2255
  8
0
 62
     5
 10
8.5151889950365263
 20
-3.385115462784865
 30
0.0
 40
0.135
  1
0.063 MUSIC WIRE
  0
TEXT
  5
2256
  8
0
 62
     5
 10
8.5151889950365263
 20
-3.6101154627848651
 30
0.0
 40
0.135
  1
PROP SHAFT
  0
ENDBLK
  5
2258
  8
0
  0
BLOCK
  8
0
  2
*U7
 70
     1
 10
0.0
 20
0.0
 30
0.0
  3
*U7
  1

  0
TEXT
  5
225A
  8
0
 62
     5
 10
6.996845979856519
 20
-5.1890713376261433
 30
0.0
 40
0.135
  1
BRASS TUBE BUSHING
  0
ENDBLK
  5
225C
  8
0
  0
BLOCK
  8
0
  2
*U8
 70
     1
 10
0.0
 20
0.0
 30
0.0
  3
*U8
  1

  0
TEXT
  5
225E
  8
0
 62
     5
 10
6.0776031589409971
 20
4.7160520786606668
 30
0.0
 40
0.135
  1
12" TO 13" PROPELLOR
  0
TEXT
  5
225F
  8
0
 62
     5
 10
6.0776031589409971
 20
4.491052078660668
 30
0.0
 40
0.135
  1
(12x17 SUGGESTED)
  0
TEXT
  5
2260
  8
0
 62
     5
 10
6.0776031589409971
 20
4.2660520786606684
 30
0.0
 40
0.135
  1
PROP OUTLINE SHOWN
  0
TEXT
  5
2261
  8
0
 62
     5
 10
6.0776031589409971
 20
4.041052078660667
 30
0.0
 40
0.135
  1
FOR REFERENCE ONLY
  0
ENDBLK
  5
2263
  8
0
  0
BLOCK
  8
0
  2
*U9
 70
     1
 10
0.0
 20
0.0
 30
0.0
  3
*U9
  1

  0
TEXT
  5
2265
  8
0
 62
     5
 10
22.71056399020134
 20
-3.6081624978408282
 30
0.0
 40
0.135
  1
FUSELAGE STRUCTURE
  0
TEXT
  5
2266
  8
0
 62
     5
 10
21.94556399020134
 20
-3.833162497840827
 30
0.0
 40
0.135
  1
HARD 1/8" SQ. - LONGERONS
  0
TEXT
  5
2267
  8
0
 62
     5
 10
22.256063990201351
 20
-4.0154124978408268
 30
0.0
 40
0.135
  1
MEDIUM 
  0
TEXT
  5
2268
  8
0
 62
     5
 10
23.17181399020134
 20
-3.9321624978408281
 30
0.0
 40
0.0945
  1
1
  0
LINE
  5
2269
  8
0
 62
     5
 10
23.156063990201339
 20
-3.9479124978408282
 30
0.0
 11
23.219063990201342
 21
-3.9479124978408282
 31
0.0
  0
TEXT
  5
226A
  8
0
 62
     5
 10
23.156063990201339
 20
-4.0581624978408284
 30
0.0
 40
0.0945
  1
8
  0
TEXT
  5
226B
  8
0
 62
     5
 10
23.250563990201339
 20
-4.0154124978408268
 30
0.0
 40
0.135
  1
" SQ. - SPACERS
  0
ENDBLK
  5
226D
  8
0
  0
BLOCK
  8
0
  2
*U10
 70
     1
 10
0.0
 20
0.0
 30
0.0
  3
*U10
  1

  0
TEXT
  5
226F
  8
0
 62
     5
 10
38.156500346053711
 20
-0.2132200347851862
 30
0.0
 40
0.135
  1
ALL WING AND TAIL
  0
TEXT
  5
2270
  8
0
 62
     5
 10
38.156500346053711
 20
-0.4382200347851862
 30
0.0
 40
0.135
  1
SPARS HARD 1/16" SQ.
  0
TEXT
  5
2271
  8
0
 62
     5
 10
38.156500346053711
 20
-0.6632200347851862
 30
0.0
 40
0.135
  1
ALL RIBS LIGHT/MEDIUM 1/16" SHEET
  0
ENDBLK
  5
2273
  8
0
  0
BLOCK
  8
0
  2
*U11
 70
     1
 10
0.0
 20
0.0
 30
0.0
  3
*U11
  1

  0
TEXT
  5
2275
  8
0
 62
     5
 10
30.329136212479568
 20
11.02742048591362
 30
0.0
 40
0.135
  1
WING LEADING EDGE
  0
TEXT
  5
2276
  8
0
 62
     5
 10
31.00413621247958
 20
10.80242048591362
 30
0.0
 40
0.135
  1
HARD 1/8" SQ.
  0
ENDBLK
  5
2278
  8
0
  0
BLOCK
  8
0
  2
*U12
 70
     1
 10
0.0
 20
0.0
 30
0.0
  3
*U12
  1

  0
TEXT
  5
227A
  8
0
 62
     5
 10
34.997408457102651
 20
5.2137890990899729
 30
0.0
 40
0.135
  1
TRAILING EDGE
  0
TEXT
  5
227B
  8
0
 62
     5
 10
34.997408457102651
 20
4.9887890990899741
 30
0.0
 40
0.135
  1
1/2"x3/32" (LIGHT/MEDIUM)
  0
ENDBLK
  5
227D
  8
0
  0
BLOCK
  8
0
  2
*X13
 70
     1
 10
0.0
 20
0.0
 30
0.0
  3
*X13
  1

  0
LINE
  5
227F
  8
0
 62
     0
 10
13.294194155125769
 20
-1.0441941752621531
 30
0.0
 11
13.24999998130161
 21
-1.0000000014379951
 31
0.0
  0
LINE
  5
2280
  8
0
 62
     0
 10
13.044194155545281
 20
-1.0441941752621551
 30
0.0
 11
12.999999981721119
 21
-1.0000000014379951
 31
0.0
  0
LINE
  5
2281
  8
0
 62
     0
 10
13.24999998200872
 20
-1.250000001725593
 30
0.0
 11
13.205805808184561
 21
-1.2058058279014341
 31
0.0
  0
LINE
  5
2282
  8
0
 62
     0
 10
12.79419415596479
 20
-1.0441941752621551
 30
0.0
 11
12.74999998214062
 21
-1.0000000014379951
 31
0.0
  0
LINE
  5
2283
  8
0
 62
     0
 10
12.99999998242823
 20
-1.250000001725593
 30
0.0
 11
12.955805808604071
 21
-1.2058058279014341
 31
0.0
  0
LINE
  5
2284
  8
0
 62
     0
 10
13.294194156539991
 20
-1.5441941758373521
 30
0.0
 11
13.249999982715821
 21
-1.5000000020131921
 31
0.0
  0
LINE
  5
2285
  8
0
 62
     0
 10
12.5441941563843
 20
-1.0441941752621551
 30
0.0
 11
12.506109528979991
 21
-1.006109547857849
 31
0.0
  0
LINE
  5
2286
  8
0
 62
     0
 10
12.74999998284774
 20
-1.250000001725593
 30
0.0
 11
12.70580580902358
 21
-1.2058058279014341
 31
0.0
  0
LINE
  5
2287
  8
0
 62
     0
 10
13.044194156959501
 20
-1.5441941758373521
 30
0.0
 11
12.99999998313533
 21
-1.5000000020131921
 31
0.0
  0
LINE
  5
2288
  8
0
 62
     0
 10
13.24999998342293
 20
-1.750000002300792
 30
0.0
 11
13.205805809598781
 21
-1.7058058284766331
 31
0.0
  0
LINE
  5
2289
  8
0
 62
     0
 10
12.499999983267241
 20
-1.250000001725595
 30
0.0
 11
12.45580580944309
 21
-1.2058058279014361
 31
0.0
  0
LINE
  5
228A
  8
0
 62
     0
 10
12.794194157379
 20
-1.544194175837353
 30
0.0
 11
12.74999998355484
 21
-1.5000000020131941
 31
0.0
  0
LINE
  5
228B
  8
0
 62
     0
 10
12.999999983842439
 20
-1.750000002300792
 30
0.0
 11
12.95580581001828
 21
-1.7058058284766331
 31
0.0
  0
LINE
  5
228C
  8
0
 62
     0
 10
13.2941941579542
 20
-2.0441941764125491
 30
0.0
 11
13.24999998413004
 21
-2.0000000025883899
 31
0.0
  0
LINE
  5
228D
  8
0
 62
     0
 10
12.249999983686751
 20
-1.2500000017255961
 30
0.0
 11
12.205805809862589
 21
-1.2058058279014361
 31
0.0
  0
LINE
  5
228E
  8
0
 62
     0
 10
12.544194157798509
 20
-1.5441941758373541
 30
0.0
 11
12.49999998397435
 21
-1.5000000020131941
 31
0.0
  0
LINE
  5
228F
  8
0
 62
     0
 10
12.749999984261949
 20
-1.7500000023007929
 30
0.0
 11
12.70580581043779
 21
-1.7058058284766351
 31
0.0
  0
LINE
  5
2290
  8
0
 62
     0
 10
13.04419415837371
 20
-2.0441941764125522
 30
0.0
 11
12.99999998454955
 21
-2.0000000025883922
 31
0.0
  0
LINE
  5
2291
  8
0
 62
     0
 10
13.249999984837149
 20
-2.250000002875991
 30
0.0
 11
13.20580581101299
 21
-2.205805829051831
 31
0.0
  0
LINE
  5
2292
  8
0
 62
     0
 10
11.99999998410626
 20
-1.250000001725595
 30
0.0
 11
11.96328287784552
 21
-1.21328289546486
 31
0.0
  0
LINE
  5
2293
  8
0
 62
     0
 10
12.294194158218019
 20
-1.544194175837353
 30
0.0
 11
12.24999998439386
 21
-1.5000000020131941
 31
0.0
  0
LINE
  5
2294
  8
0
 62
     0
 10
12.499999984681461
 20
-1.750000002300792
 30
0.0
 11
12.455805810857299
 21
-1.7058058284766331
 31
0.0
  0
LINE
  5
2295
  8
0
 62
     0
 10
12.79419415879322
 20
-2.04419417641255
 30
0.0
 11
12.74999998496906
 21
-2.0000000025883922
 31
0.0
  0
LINE
  5
2296
  8
0
 62
     0
 10
12.999999985256659
 20
-2.250000002875991
 30
0.0
 11
12.9558058114325
 21
-2.2058058290518301
 31
0.0
  0
LINE
  5
2297
  8
0
 62
     0
 10
13.29419415936842
 20
-2.5441941769877481
 30
0.0
 11
13.24999998554426
 21
-2.5000000031635881
 31
0.0
  0
LINE
  5
2298
  8
0
 62
     0
 10
12.044194158637531
 20
-1.544194175837353
 30
0.0
 11
11.99999998481336
 21
-1.5000000020131941
 31
0.0
  0
LINE
  5
2299
  8
0
 62
     0
 10
12.24999998510096
 20
-1.750000002300792
 30
0.0
 11
12.205805811276811
 21
-1.7058058284766331
 31
0.0
  0
LINE
  5
229A
  8
0
 62
     0
 10
12.54419415921272
 20
-2.0441941764125491
 30
0.0
 11
12.49999998538857
 21
-2.0000000025883899
 31
0.0
  0
LINE
  5
229B
  8
0
 62
     0
 10
12.74999998567616
 20
-2.2500000028759901
 30
0.0
 11
12.705805811852001
 21
-2.2058058290518301
 31
0.0
  0
LINE
  5
229C
  8
0
 62
     0
 10
13.044194159787921
 20
-2.5441941769877481
 30
0.0
 11
12.999999985963759
 21
-2.5000000031635881
 31
0.0
  0
LINE
  5
229D
  8
0
 62
     0
 10
13.24999998625136
 20
-2.7500000034511869
 30
0.0
 11
13.205805812427201
 21
-2.7058058296270282
 31
0.0
  0
LINE
  5
229E
  8
0
 62
     0
 10
11.99999998552047
 20
-1.750000002300792
 30
0.0
 11
11.96328287784552
 21
-1.7132828946258449
 31
0.0
  0
LINE
  5
229F
  8
0
 62
     0
 10
12.29419415963223
 20
-2.04419417641255
 30
0.0
 11
12.249999985808071
 21
-2.0000000025883922
 31
0.0
  0
LINE
  5
22A0
  8
0
 62
     0
 10
12.49999998609567
 20
-2.250000002875991
 30
0.0
 11
12.45580581227151
 21
-2.205805829051831
 31
0.0
  0
LINE
  5
22A1
  8
0
 62
     0
 10
12.79419416020743
 20
-2.5441941769877481
 30
0.0
 11
12.74999998638326
 21
-2.5000000031635889
 31
0.0
  0
LINE
  5
22A2
  8
0
 62
     0
 10
12.99999998667087
 20
-2.7500000034511878
 30
0.0
 11
12.955805812846711
 21
-2.7058058296270282
 31
0.0
  0
LINE
  5
22A3
  8
0
 62
     0
 10
12.04419416005174
 20
-2.04419417641255
 30
0.0
 11
11.99999998622758
 21
-2.0000000025883922
 31
0.0
  0
LINE
  5
22A4
  8
0
 62
     0
 10
12.24999998651518
 20
-2.250000002875991
 30
0.0
 11
12.20580581269102
 21
-2.2058058290518301
 31
0.0
  0
LINE
  5
22A5
  8
0
 62
     0
 10
12.54419416062694
 20
-2.5441941769877481
 30
0.0
 11
12.499999986802781
 21
-2.5000000031635881
 31
0.0
  0
LINE
  5
22A6
  8
0
 62
     0
 10
12.74999998709038
 20
-2.7500000034511869
 30
0.0
 11
12.70580581326622
 21
-2.7058058296270282
 31
0.0
  0
LINE
  5
22A7
  8
0
 62
     0
 10
11.999999986934689
 20
-2.2500000028759879
 30
0.0
 11
11.96328287784552
 21
-2.2132828937868281
 31
0.0
  0
LINE
  5
22A8
  8
0
 62
     0
 10
12.29419416104645
 20
-2.5441941769877472
 30
0.0
 11
12.24999998722229
 21
-2.5000000031635881
 31
0.0
  0
LINE
  5
22A9
  8
0
 62
     0
 10
12.499999987509881
 20
-2.750000003451186
 30
0.0
 11
12.455805813685719
 21
-2.705805829627026
 31
0.0
  0
LINE
  5
22AA
  8
0
 62
     0
 10
12.044194161465949
 20
-2.5441941769877472
 30
0.0
 11
11.99999998764179
 21
-2.5000000031635881
 31
0.0
  0
LINE
  5
22AB
  8
0
 62
     0
 10
12.249999987929391
 20
-2.750000003451186
 30
0.0
 11
12.205805814105229
 21
-2.705805829627026
 31
0.0
  0
LINE
  5
22AC
  8
0
 62
     0
 10
11.9999999883489
 20
-2.7500000034511869
 30
0.0
 11
11.96328287784552
 21
-2.7132828929478152
 31
0.0
  0
LINE
  5
22AD
  8
0
 62
     0
 10
13.25
 20
-1.0
 30
0.0
 11
13.25
 21
-0.8050580692037936
 31
0.0
  0
LINE
  5
22AE
  8
0
 62
     0
 10
13.25
 20
-1.5
 30
0.0
 11
13.25
 21
-1.25
 31
0.0
  0
LINE
  5
22AF
  8
0
 62
     0
 10
13.25
 20
-2.0
 30
0.0
 11
13.25
 21
-1.75
 31
0.0
  0
LINE
  5
22B0
  8
0
 62
     0
 10
13.25
 20
-2.5
 30
0.0
 11
13.25
 21
-2.25
 31
0.0
  0
LINE
  5
22B1
  8
0
 62
     0
 10
13.25
 20
-2.8908222091785918
 30
0.0
 11
13.25
 21
-2.75
 31
0.0
  0
LINE
  5
22B2
  8
0
 62
     0
 10
13.0
 20
-1.0
 30
0.0
 11
13.0
 21
-0.872625636771361
 31
0.0
  0
LINE
  5
22B3
  8
0
 62
     0
 10
13.0
 20
-1.5
 30
0.0
 11
13.0
 21
-1.25
 31
0.0
  0
LINE
  5
22B4
  8
0
 62
     0
 10
13.0
 20
-2.0
 30
0.0
 11
13.0
 21
-1.75
 31
0.0
  0
LINE
  5
22B5
  8
0
 62
     0
 10
13.0
 20
-2.5
 30
0.0
 11
13.0
 21
-2.25
 31
0.0
  0
LINE
  5
22B6
  8
0
 62
     0
 10
13.0
 20
-2.8714923515548541
 30
0.0
 11
13.0
 21
-2.75
 31
0.0
  0
LINE
  5
22B7
  8
0
 62
     0
 10
12.75
 20
-1.0
 30
0.0
 11
12.75
 21
-0.9401932043389283
 31
0.0
  0
LINE
  5
22B8
  8
0
 62
     0
 10
12.75
 20
-1.5
 30
0.0
 11
12.75
 21
-1.25
 31
0.0
  0
LINE
  5
22B9
  8
0
 62
     0
 10
12.75
 20
-2.0
 30
0.0
 11
12.75
 21
-1.75
 31
0.0
  0
LINE
  5
22BA
  8
0
 62
     0
 10
12.75
 20
-2.5
 30
0.0
 11
12.75
 21
-2.25
 31
0.0
  0
LINE
  5
22BB
  8
0
 62
     0
 10
12.75
 20
-2.8486481205013741
 30
0.0
 11
12.75
 21
-2.75
 31
0.0
  0
LINE
  5
22BC
  8
0
 62
     0
 10
12.5
 20
-1.5
 30
0.0
 11
12.5
 21
-1.25
 31
0.0
  0
LINE
  5
22BD
  8
0
 62
     0
 10
12.5
 20
-2.0
 30
0.0
 11
12.5
 21
-1.75
 31
0.0
  0
LINE
  5
22BE
  8
0
 62
     0
 10
12.5
 20
-2.5
 30
0.0
 11
12.5
 21
-2.25
 31
0.0
  0
LINE
  5
22BF
  8
0
 62
     0
 10
12.5
 20
-2.8222760323454259
 30
0.0
 11
12.5
 21
-2.75
 31
0.0
  0
LINE
  5
22C0
  8
0
 62
     0
 10
12.25
 20
-1.5
 30
0.0
 11
12.25
 21
-1.25
 31
0.0
  0
LINE
  5
22C1
  8
0
 62
     0
 10
12.25
 20
-2.0
 30
0.0
 11
12.25
 21
-1.75
 31
0.0
  0
LINE
  5
22C2
  8
0
 62
     0
 10
12.25
 20
-2.5
 30
0.0
 11
12.25
 21
-2.25
 31
0.0
  0
LINE
  5
22C3
  8
0
 62
     0
 10
12.25
 20
-2.792360435182407
 30
0.0
 11
12.25
 21
-2.75
 31
0.0
  0
LINE
  5
22C4
  8
0
 62
     0
 10
12.0
 20
-1.5
 30
0.0
 11
12.0
 21
-1.25
 31
0.0
  0
LINE
  5
22C5
  8
0
 62
     0
 10
12.0
 20
-2.0
 30
0.0
 11
12.0
 21
-1.75
 31
0.0
  0
LINE
  5
22C6
  8
0
 62
     0
 10
12.0
 20
-2.5
 30
0.0
 11
12.0
 21
-2.25
 31
0.0
  0
LINE
  5
22C7
  8
0
 62
     0
 10
12.0
 20
-2.7588834617114459
 30
0.0
 11
12.0
 21
-2.75
 31
0.0
  0
ENDBLK
  5
22C9
  8
0
  0
BLOCK
  8
0
  2
*U14
 70
     1
 10
0.0
 20
0.0
 30
0.0
  3
*U14
  1

  0
TEXT
  5
22CB
  8
0
 62
     5
 10
11.31146068364102
 20
0.6964207129581669
 30
0.0
 40
0.135
  1
LIGHT 1/8" SHEET
  0
TEXT
  5
22CC
  8
0
 62
     5
 10
10.99646068364102
 20
0.4714207129581669
 30
0.0
 40
0.135
  1
FILL-IN ALL AROUND
  0
TEXT
  5
22CD
  8
0
 62
     5
 10
12.25646068364102
 20
0.2464207129581669
 30
0.0
 40
0.135
  1
THE NOSE
  0
ENDBLK
  5
22CF
  8
0
  0
BLOCK
  8
0
  2
*U15
 70
     1
 10
0.0
 20
0.0
 30
0.0
  3
*U15
  1

  0
TEXT
  5
22D1
  8
0
 62
     5
 10
17.274843571148249
 20
-7.5957050286568011
 30
0.0
 40
0.135
  1
\U+2205
  0
TEXT
  5
22D2
  8
0
 62
     5
 10
17.409843571148251
 20
-7.5957050286568011
 30
0.0
 40
0.135
  1
1.5" WHEEL
  0
ENDBLK
  5
22D4
  8
0
  0
BLOCK
  8
0
  2
*U16
 70
     1
 10
0.0
 20
0.0
 30
0.0
  3
*U16
  1

  0
TEXT
  5
22D6
  8
0
 62
     5
 10
12.621203784821651
 20
-4.5667380457654598
 30
0.0
 40
0.135
  1
6.00
  0
ENDBLK
  5
22D8
  8
0
  0
BLOCK
  8
0
  2
*U17
 70
     1
 10
0.0
 20
0.0
 30
0.0
  3
*U17
  1

  0
TEXT
  5
22DA
  8
TEXT
 10
35.633673259976597
 20
-0.8741543528680095
 30
0.0
 40
0.135
  1
FIN STRUCTURE
  0
TEXT
  5
22DB
  8
TEXT
 10
35.633673259976597
 20
-1.0991543528680081
 30
0.0
 40
0.135
  1
LIGHT/MEDIUM
  0
TEXT
  5
22DC
  8
TEXT
 10
35.633673259976597
 20
-1.3241543528680091
 30
0.0
 40
0.135
  1
1/8 SHEET & STRIP
  0
ENDBLK
  5
22DE
  8
0
  0
BLOCK
  8
0
  2
*U18
 70
     1
 10
0.0
 20
0.0
 30
0.0
  3
*U18
  1

  0
TEXT
  5
22E0
  8
0
 62
     5
 10
15.34852930794303
 20
-3.619620768423891
 30
0.0
 40
0.135
  1
0.047 MUSIC WIRE
  0
TEXT
  5
22E1
  8
0
 62
     5
 10
15.34852930794303
 20
-3.8446207684238911
 30
0.0
 40
0.135
  1
U/C LEG -BIND &
  0
TEXT
  5
22E2
  8
0
 62
     5
 10
15.34852930794303
 20
-4.0696207684238912
 30
0.0
 40
0.135
  1
CEMENT TO UPRIGHTS
  0
ENDBLK
  5
22E4
  8
0
  0
BLOCK
  8
0
  2
*U19
 70
     1
 10
0.0
 20
0.0
 30
0.0
  3
*U19
  1

  0
TEXT
  5
22E6
  8
0
 62
     5
 10
6.8731277138766078
 20
1.342783083447707
 30
0.0
 40
0.135
  1
GARAMI FREE-WHEEL
  0
TEXT
  5
22E7
  8
0
 62
     5
 10
6.8731277138766078
 20
1.117783083447708
 30
0.0
 40
0.135
  1
0.036" WIRE
  0
TEXT
  5
22E8
  8
0
 62
     5
 10
6.8731277138766078
 20
0.8927830834477077
 30
0.0
 40
0.135
  1
ALUM TUBE
  0
TEXT
  5
22E9
  8
0
 62
     5
 10
6.8731277138766078
 20
0.6677830834477082
 30
0.0
 40
0.135
  1
GLASS CLOTH/EPOXY
  0
ENDBLK
  5
22EB
  8
0
  0
BLOCK
  8
0
  2
*U20
 70
     1
 10
0.0
 20
0.0
 30
0.0
  3
*U20
  1

  0
TEXT
  5
22ED
  8
0
 62
     5
 10
7.6903465817212222
 20
-0.7813234259472984
 30
0.0
 40
0.0945
  1
1
  0
LINE
  5
22EE
  8
0
 62
     5
 10
7.6745965817212198
 20
-0.7970734259472982
 30
0.0
 11
7.7375965817212222
 21
-0.7970734259472982
 31
0.0
  0
TEXT
  5
22EF
  8
0
 62
     5
 10
7.6745965817212198
 20
-0.9073234259472982
 30
0.0
 40
0.0945
  1
4
  0
TEXT
  5
22F0
  8
0
 62
     5
 10
7.7690965817212199
 20
-0.8645734259472983
 30
0.0
 40
0.135
  1
x
  0
TEXT
  5
22F1
  8
0
 62
     5
 10
7.919846581721222
 20
-0.7813234259472984
 30
0.0
 40
0.0945
  1
1
  0
LINE
  5
22F2
  8
0
 62
     5
 10
7.9040965817212223
 20
-0.7970734259472982
 30
0.0
 11
7.967096581721222
 21
-0.7970734259472982
 31
0.0
  0
TEXT
  5
22F3
  8
0
 62
     5
 10
7.9040965817212223
 20
-0.9073234259472982
 30
0.0
 40
0.0945
  1
8
  0
TEXT
  5
22F4
  8
0
 62
     5
 10
7.6745965817212198
 20
-1.087323425947297
 30
0.0
 40
0.135
  1
NOSE PLUG
  0
ENDBLK
  5
22F6
  8
0
  0
BLOCK
  8
0
  2
*U21
 70
     1
 10
0.0
 20
0.0
 30
0.0
  3
*U21
  1

  0
TEXT
  5
22F8
  8
0
 62
     5
 10
8.1258511369205682
 20
-7.0328945857912011
 30
0.0
 40
0.135
  1
FACE NOSE BLOCK AND
  0
TEXT
  5
22F9
  8
0
 62
     5
 10
8.1258511369205682
 20
-7.2578945857912034
 30
0.0
 40
0.135
  1
FUSELAGE OPENING
  0
TEXT
  5
22FA
  8
0
 62
     5
 10
8.1258511369205682
 20
-7.525644585791202
 30
0.0
 40
0.135
  1
WITH 
  0
TEXT
  5
22FB
  8
0
 62
     5
 10
8.8638511369205712
 20
-7.4423945857912033
 30
0.0
 40
0.0945
  1
1
  0
LINE
  5
22FC
  8
0
 62
     5
 10
8.8008511369205689
 20
-7.4581445857912012
 30
0.0
 11
8.9583511369205713
 21
-7.4581445857912012
 31
0.0
  0
TEXT
  5
22FD
  8
0
 62
     5
 10
8.8008511369205689
 20
-7.5683945857912009
 30
0.0
 40
0.0945
  1
32
  0
TEXT
  5
22FE
  8
0
 62
     5
 10
8.9898511369205671
 20
-7.525644585791202
 30
0.0
 40
0.135
  1
 PLY
  0
ENDBLK
  5
2300
  8
0
  0
BLOCK
  8
0
  2
*U22
 70
     1
 10
0.0
 20
0.0
 30
0.0
  3
*U22
  1

  0
TEXT
  5
2302
  8
0
 62
     5
 10
10.576013400679949
 20
-7.0687131230934561
 30
0.0
 40
0.18
  1
 
  0
ENDBLK
  5
2304
  8
0
  0
BLOCK
  8
0
  2
*U23
 70
     1
 10
0.0
 20
0.0
 30
0.0
  3
*U23
  1

  0
TEXT
  5
2306
  8
GH
 62
     5
 10
7.8090567786428444
 20
-4.3340373458745454
 30
0.0
 40
0.135
  1
BIND AND SOLDER
  0
ENDBLK
  5
2308
  8
0
  0
BLOCK
  8
0
  2
*U24
 70
     1
 10
0.0
 20
0.0
 30
0.0
  3
*U24
  1

  0
TEXT
  5
230A
  8
GH
 62
     5
 10
6.5787019524277452
 20
-0.1224344537933721
 30
0.0
 40
0.135
  1
THRUST
  0
TEXT
  5
230B
  8
GH
 62
     5
 10
6.8487019524277439
 20
-0.3474344537933721
 30
0.0
 40
0.135
  1
RACE
  0
ENDBLK
  5
230D
  8
0
  0
BLOCK
  8
0
  2
*X25
 70
     1
 10
0.0
 20
0.0
 30
0.0
  3
*X25
  1

  0
LINE
  5
230F
  8
0
 62
     0
 10
4.9702030464353282
 20
-1.2136982713817941
 30
0.0
 11
4.8843777542198303
 21
-1.127872979166296
 31
0.0
  0
LINE
  5
2310
  8
0
 62
     0
 10
5.0164101118358451
 20
-1.304099510606471
 30
0.0
 11
4.8321358682155671
 21
-1.119825266986193
 31
0.0
  0
LINE
  5
2311
  8
0
 62
     0
 10
5.0311512662885454
 20
-1.36303483888333
 30
0.0
 11
4.8381089138060407
 21
-1.1699924864008271
 31
0.0
  0
LINE
  5
2312
  8
0
 62
     0
 10
5.0356268889918221
 20
-1.4117046354107681
 30
0.0
 11
4.8440865462036689
 21
-1.2201642926226131
 31
0.0
  0
LINE
  5
2313
  8
0
 62
     0
 10
5.0340759351932398
 20
-1.454347855436344
 30
0.0
 11
4.8500302802825059
 21
-1.2703022005256099
 31
0.0
  0
LINE
  5
2314
  8
0
 62
     0
 10
5.0282624685200599
 20
-1.492728562587323
 30
0.0
 11
4.8559038480169878
 21
-1.3203699420842521
 31
0.0
  0
LINE
  5
2315
  8
0
 62
     0
 10
5.019116310125824
 20
-1.5277765780172481
 30
0.0
 11
4.8617248358016081
 21
-1.370385103693029
 31
0.0
  0
LINE
  5
2316
  8
0
 62
     0
 10
5.0071900964016418
 20
-1.5600445381172241
 30
0.0
 11
4.867228236056083
 21
-1.4200826777716651
 31
0.0
  0
LINE
  5
2317
  8
0
 62
     0
 10
4.9928341408905572
 20
-1.5898827564302971
 30
0.0
 11
4.8727316363105571
 21
-1.469780251850298
 31
0.0
  0
LINE
  5
2318
  8
0
 62
     0
 10
4.9762762047603637
 20
-1.617518994124264
 30
0.0
 11
4.8777375726251107
 21
-1.5189803619890101
 31
0.0
  0
LINE
  5
2319
  8
0
 62
     0
 10
4.9576619137151852
 20
-1.643098876903244
 30
0.0
 11
4.8826564408049684
 21
-1.5680934039930281
 31
0.0
  0
LINE
  5
231A
  8
0
 62
     0
 10
4.9370762544299316
 20
-1.6667073914421511
 30
0.0
 11
4.8873571977080461
 21
-1.616988334720264
 31
0.0
  0
LINE
  5
231B
  8
0
 62
     0
 10
4.914554640261624
 20
-1.688379951098
 30
0.0
 11
4.8916065151833727
 21
-1.66543182601975
 31
0.0
  0
ENDBLK
  5
231D
  8
0
  0
BLOCK
  8
0
  2
*U26
 70
     1
 10
0.0
 20
0.0
 30
0.0
  3
*U26
  1

  0
TEXT
  5
231F
  8
0
 62
     5
 10
6.3551675667827503
 20
0.3826406342404985
 30
0.0
 40
0.18
  1
 
  0
ENDBLK
  5
2321
  8
0
  0
BLOCK
  8
0
  2
*U27
 70
     1
 10
0.0
 20
0.0
 30
0.0
  3
*U27
  1

  0
TEXT
  5
2323
  8
0
 62
     5
 10
4.6610177064991314
 20
-4.9846813080572652
 30
0.0
 40
0.135
  1
1/32" PLY
  0
TEXT
  5
2324
  8
0
 62
     5
 10
4.6160177064991297
 20
-5.2096813080572648
 30
0.0
 40
0.135
  1
FACING ON
  0
TEXT
  5
2325
  8
0
 62
     5
 10
4.7060177064991313
 20
-5.4346813080572653
 30
0.0
 40
0.135
  1
PROP HUB
  0
ENDBLK
  5
2327
  8
0
  0
BLOCK
  8
0
  2
*U28
 70
     1
 10
0.0
 20
0.0
 30
0.0
  3
*U28
  1

  0
TEXT
  5
2329
  8
TEXT
 10
38.070007734196729
 20
-5.8337862243542951
 30
0.0
 40
0.1346625
  1
POWER - 6 STRANDS 1/4
  0
ENDBLK
  5
232B
  8
0
  0
BLOCK
  8
0
  2
*U29
 70
     1
 10
0.0
 20
0.0
 30
0.0
  3
*U29
  1

  0
TEXT
  5
232D
  8
TEXT
 10
39.1515732608215
 20
-6.1168246414763088
 30
0.0
 40
0.1346625
  1
8 STRANDS 3/16
  0
ENDBLK
  5
232F
  8
0
  0
BLOCK
  8
0
  2
*U30
 70
     1
 10
0.0
 20
0.0
 30
0.0
  3
*U30
  1

  0
TEXT
  5
2331
  8
TEXT
 10
39.1515732608215
 20
-6.3912861965705652
 30
0.0
 40
0.1346625
  1
12 STRANDS 1/8
  0
ENDBLK
  5
2333
  8
0
  0
BLOCK
  8
0
  2
*U31
 70
     1
 10
0.0
 20
0.0
 30
0.0
  3
*U31
  1

  0
TEXT
  5
2335
  8
0
 62
     5
 10
38.350142968607329
 20
7.5818960991754709
 30
0.0
 40
0.135
  1
TIPS - 
  0
TEXT
  5
2336
  8
0
 62
     5
 10
39.297392968607333
 20
7.6651460991754732
 30
0.0
 40
0.0945
  1
3
  0
LINE
  5
2337
  8
0
 62
     5
 10
39.250142968607328
 20
7.6493960991754708
 30
0.0
 11
39.407642968607327
 21
7.6493960991754708
 31
0.0
  0
TEXT
  5
2338
  8
0
 62
     5
 10
39.250142968607328
 20
7.5391460991754711
 30
0.0
 40
0.0945
  1
32
  0
TEXT
  5
2339
  8
0
 62
     5
 10
39.439142968607328
 20
7.5818960991754709
 30
0.0
 40
0.135
  1
 SHEET
  0
TEXT
  5
233A
  8
0
 62
     5
 10
39.439142968607328
 20
7.359146099175474
 30
0.0
 40
0.135
  1
(LIGHT)
  0
ENDBLK
  5
233C
  8
0
  0
BLOCK
  8
0
  2
*U32
 70
     1
 10
0.0
 20
0.0
 30
0.0
  3
*U32
  1

  0
TEXT
  5
233E
  8
0
 62
     5
 10
25.327395648839211
 20
5.0008200267238436
 30
0.0
 40
0.135
  1
TAIL LEADING EDGE
  0
TEXT
  5
233F
  8
0
 62
     5
 10
25.822395648839208
 20
4.7758200267238431
 30
0.0
 40
0.135
  1
 HARD 1/8" SQ.
  0
ENDBLK
  5
2341
  8
0
  0
BLOCK
  8
0
  2
*U33
 70
     1
 10
0.0
 20
0.0
 30
0.0
  3
*U33
  1

  0
TEXT
  5
2343
  8
0
 62
     5
 10
23.408179525336902
 20
0.4127361242141522
 30
0.0
 40
0.135
  1
TRAILING EDGE
  0
TEXT
  5
2344
  8
0
 62
     5
 10
23.408179525336902
 20
0.187736124214152
 30
0.0
 40
0.135
  1
3/8"x3/32" (LIGHT/MEDIUM)
  0
ENDBLK
  5
2346
  8
0
  0
BLOCK
  8
0
  2
*U34
 70
     1
 10
0.0
 20
0.0
 30
0.0
  3
*U34
  1

  0
TEXT
  5
2348
  8
0
 62
     5
 10
18.287964021641759
 20
0.5001527562551072
 30
0.0
 40
0.135
  1
DOWELS 
  0
TEXT
  5
2349
  8
0
 62
     5
 10
19.277964021641761
 20
0.5001527562551072
 30
0.0
 40
0.135
  1
\U+2205
  0
TEXT
  5
234A
  8
0
 62
     5
 10
19.412964021641759
 20
0.5001527562551072
 30
0.0
 40
0.135
  1
 3/32
  0
ENDBLK
  5
234C
  8
0
  0
BLOCK
  8
0
  2
*U35
 70
     1
 10
0.0
 20
0.0
 30
0.0
  3
*U35
  1

  0
TEXT
  5
234E
  8
0
 62
     5
 10
39.014305990821313
 20
1.824272022835254
 30
0.0
 40
0.135
  1
WING
  0
ENDBLK
  5
2350
  8
0
  0
BLOCK
  8
0
  2
*U36
 70
     1
 10
0.0
 20
0.0
 30
0.0
  3
*U36
  1

  0
TEXT
  5
2352
  8
0
 62
     5
 10
39.059305990821287
 20
0.7642543576659922
 30
0.0
 40
0.135
  1
TAIL
  0
ENDBLK
  5
2354
  8
0
  0
BLOCK
  8
0
  2
*U37
 70
     1
 10
0.0
 20
0.0
 30
0.0
  3
*U37
  1

  0
TEXT
  5
2356
  8
0
 62
     5
 10
38.796640156637842
 20
4.8318068077989711
 30
0.0
 40
0.135
  1
PROP BLANK
  0
TEXT
  5
2357
  8
0
 62
     5
 10
38.796640156637842
 20
4.6068068077989697
 30
0.0
 40
0.135
  1
MEDIUM 1" SHEET
  0
ENDBLK
  5
2359
  8
0
  0
BLOCK
  8
0
  2
*U38
 70
     1
 10
0.0
 20
0.0
 30
0.0
  3
*U38
  1

  0
TEXT
  5
235B
  8
0
 62
     5
 10
37.33395244948543
 20
4.3363404156072063
 30
0.0
 40
0.135
  1
12.00
  0
ENDBLK
  5
235D
  8
0
  0
BLOCK
  8
0
  2
*U39
 70
     1
 10
0.0
 20
0.0
 30
0.0
  3
*U39
  1

  0
TEXT
  5
235F
  8
0
 62
     5
 10
33.166394636219309
 20
2.9738717986802241
 30
0.0
 40
0.135
  1
2.22
  0
ENDBLK
  5
2361
  8
0
  0
BLOCK
  8
0
  2
*U40
 70
     1
 10
0.0
 20
0.0
 30
0.0
  3
*U40
  1

  0
TEXT
  5
2363
  8
0
 62
     5
 10
27.655584408679498
 20
-3.6326884372965562
 30
0.0
 40
0.135
  1
1/8" SHEET
  0
TEXT
  5
2364
  8
0
 62
     5
 10
26.800584408679509
 20
-3.8576884372965541
 30
0.0
 40
0.135
  1
FACED INTERNALLY
  0
TEXT
  5
2365
  8
0
 62
     5
 10
27.4215844086795
 20
-4.1254384372965562
 30
0.0
 40
0.135
  1
WITH 
  0
TEXT
  5
2366
  8
0
 62
     5
 10
28.1595844086795
 20
-4.0421884372965531
 30
0.0
 40
0.0945
  1
1
  0
LINE
  5
2367
  8
0
 62
     5
 10
28.096584408679501
 20
-4.0579384372965537
 30
0.0
 11
28.2540844086795
 21
-4.0579384372965537
 31
0.0
  0
TEXT
  5
2368
  8
0
 62
     5
 10
28.096584408679501
 20
-4.1681884372965561
 30
0.0
 40
0.0945
  1
32
  0
TEXT
  5
2369
  8
0
 62
     5
 10
28.285584408679501
 20
-4.1254384372965562
 30
0.0
 40
0.135
  1
" PLY
  0
ENDBLK
  5
236B
  8
0
  0
BLOCK
  8
0
  2
*U41
 70
     1
 10
0.0
 20
0.0
 30
0.0
  3
*U41
  1

  0
SOLID
  5
236D
  8
0
  6
CONTINUOUS
 10
30.338658782311931
 20
-2.6629427442678861
 30
0.0
 11
30.33271801878076
 21
-2.665403489093348
 31
0.0
 12
30.344599545843099
 22
-2.665403489093348
 32
0.0
 13
30.344599545843099
 23
-2.665403489093348
 33
0.0
  0
SOLID
  5
236E
  8
0
  6
CONTINUOUS
 10
30.33271801878076
 20
-2.665403489093348
 30
0.0
 11
30.330257273955301
 21
-2.671344252624519
 31
0.0
 12
30.347060290668569
 22
-2.671344252624519
 32
0.0
 13
30.347060290668569
 23
-2.671344252624519
 33
0.0
  0
SOLID
  5
236F
  8
0
  6
CONTINUOUS
 10
-30.33271801878076
 20
-2.665403489093348
 30
0.0
 11
-30.344599545843099
 21
-2.665403489093348
 31
0.0
 12
-30.347060290668569
 22
-2.671344252624519
 32
0.0
 13
-30.347060290668569
 23
-2.671344252624519
 33
0.0
210
0.0
220
0.0
230
-1.0
  0
SOLID
  5
2370
  8
0
  6
CONTINUOUS
 10
30.330257273955301
 20
-2.671344252624519
 30
0.0
 11
30.33271801878076
 21
-2.67728501615569
 31
0.0
 12
30.344599545843099
 22
-2.67728501615569
 32
0.0
 13
30.344599545843099
 23
-2.67728501615569
 33
0.0
  0
SOLID
  5
2371
  8
0
  6
CONTINUOUS
 10
-30.330257273955301
 20
-2.671344252624519
 30
0.0
 11
-30.347060290668569
 21
-2.671344252624519
 31
0.0
 12
-30.344599545843099
 22
-2.67728501615569
 32
0.0
 13
-30.344599545843099
 23
-2.67728501615569
 33
0.0
210
0.0
220
0.0
230
-1.0
  0
SOLID
  5
2372
  8
0
  6
CONTINUOUS
 10
-30.33271801878076
 20
-2.67728501615569
 30
0.0
 11
-30.344599545843099
 21
-2.67728501615569
 31
0.0
 12
-30.338658782311931
 22
-2.6797457609811541
 32
0.0
 13
-30.338658782311931
 23
-2.6797457609811541
 33
0.0
210
0.0
220
0.0
230
-1.0
  0
LINE
  5
2373
  8
0
  6
CONTINUOUS
 10
30.338658782311931
 20
-2.6629427442678861
 30
0.0
 11
30.33271801878076
 21
-2.665403489093348
 31
0.0
  0
LINE
  5
2374
  8
0
  6
CONTINUOUS
 10
30.344599545843099
 20
-2.665403489093348
 30
0.0
 11
30.338658782311931
 21
-2.6629427442678861
 31
0.0
  0
LINE
  5
2375
  8
0
  6
CONTINUOUS
 10
30.33271801878076
 20
-2.665403489093348
 30
0.0
 11
30.330257273955301
 21
-2.671344252624519
 31
0.0
  0
LINE
  5
2376
  8
0
  6
CONTINUOUS
 10
30.344599545843099
 20
-2.665403489093348
 30
0.0
 11
30.347060290668569
 21
-2.671344252624519
 31
0.0
  0
LINE
  5
2377
  8
0
  6
CONTINUOUS
 10
30.330257273955301
 20
-2.671344252624519
 30
0.0
 11
30.33271801878076
 21
-2.67728501615569
 31
0.0
  0
LINE
  5
2378
  8
0
  6
CONTINUOUS
 10
30.347060290668569
 20
-2.671344252624519
 30
0.0
 11
30.344599545843099
 21
-2.67728501615569
 31
0.0
  0
LINE
  5
2379
  8
0
  6
CONTINUOUS
 10
30.344599545843099
 20
-2.67728501615569
 30
0.0
 11
30.338658782311931
 21
-2.6797457609811541
 31
0.0
  0
LINE
  5
237A
  8
0
  6
CONTINUOUS
 10
30.338658782311931
 20
-2.6797457609811541
 30
0.0
 11
30.33271801878076
 21
-2.67728501615569
 31
0.0
  0
ENDBLK
  5
237C
  8
0
  0
BLOCK
  8
0
  2
*U42
 70
     1
 10
0.0
 20
0.0
 30
0.0
  3
*U42
  1

  0
TEXT
  5
237E
  8
TEXT
 10
36.231015889501961
 20
-3.44641876416319
 30
0.0
 40
0.1346625
  1
DETHERMALISER
  0
TEXT
  5
237F
  8
TEXT
 10
36.231015889501961
 20
-3.670856264163191
 30
0.0
 40
0.1346625
  1
SOME ADAPTATION OF THE ORIGINAL KIT
  0
TEXT
  5
2380
  8
TEXT
 10
36.231015889501961
 20
-3.8952937641631911
 30
0.0
 40
0.1346625
  1
IS REQUIRED TO INCORPORATE A DT.
  0
TEXT
  5
2381
  8
TEXT
 10
36.231015889501961
 20
-4.1197312641631907
 30
0.0
 40
0.1346625
  1
MOST POPULAR METHOD IS TO MAKE THE
  0
TEXT
  5
2382
  8
TEXT
 10
36.231015889501961
 20
-4.3441687641631912
 30
0.0
 40
0.1346625
  1
WING L/E POP UP. SOME VERSIONS HAVE
  0
TEXT
  5
2383
  8
TEXT
 10
36.231015889501961
 20
-4.5686062641631899
 30
0.0
 40
0.1346625
  1
BEEN SEEN WITH THE TAIL L/E TIPPING
  0
TEXT
  5
2384
  8
TEXT
 10
36.231015889501961
 20
-4.7930437641631922
 30
0.0
 40
0.1346625
  1
DOWN.
  0
ENDBLK
  5
2386
  8
0
  0
BLOCK
  8
0
  2
*U43
 70
     1
 10
0.0
 20
0.0
 30
0.0
  3
*U43
  1

  0
TEXT
  5
2388
  8
0
 62
     5
 10
30.557499645810172
 20
4.1793047549065454
 30
0.0
 40
0.135
  1
TIPS - 
  0
TEXT
  5
2389
  8
0
 62
     5
 10
31.504749645810168
 20
4.262554754906545
 30
0.0
 40
0.0945
  1
3
  0
LINE
  5
238A
  8
0
 62
     5
 10
31.45749964581017
 20
4.2468047549065453
 30
0.0
 11
31.614999645810169
 21
4.2468047549065453
 31
0.0
  0
TEXT
  5
238B
  8
0
 62
     5
 10
31.45749964581017
 20
4.1365547549065438
 30
0.0
 40
0.0945
  1
32
  0
TEXT
  5
238C
  8
0
 62
     5
 10
31.64649964581017
 20
4.1793047549065454
 30
0.0
 40
0.135
  1
 SHEET
  0
TEXT
  5
238D
  8
0
 62
     5
 10
31.64649964581017
 20
3.9565547549065441
 30
0.0
 40
0.135
  1
(LIGHT)
  0
ENDBLK
  5
238F
  8
0
  0
BLOCK
  8
0
  2
*X44
 70
     1
 10
0.0
 20
0.0
 30
0.0
  3
*X44
  1

  0
LINE
  5
2391
  8
0
 62
     0
 10
34.990945991147591
 20
-5.6340539408921453
 30
0.0
 11
35.00000004012005
 21
-5.6249998919196829
 31
0.0
  0
LINE
  5
2392
  8
0
 62
     0
 10
34.875000039976243
 20
-5.62499989227324
 30
0.0
 11
34.897097126888319
 21
-5.6029028053611603
 31
0.0
  0
LINE
  5
2393
  8
0
 62
     0
 10
34.727902952920367
 20
-5.6470969795388699
 30
0.0
 11
34.750000039832443
 21
-5.624999892626791
 31
0.0
  0
LINE
  5
2394
  8
0
 62
     0
 10
34.625000039688651
 20
-5.6249998929803411
 30
0.0
 11
34.647097126600741
 21
-5.6029028060682622
 31
0.0
  0
LINE
  5
2395
  8
0
 62
     0
 10
34.477902952632782
 20
-5.6470969802459727
 30
0.0
 11
34.500000039544851
 21
-5.6249998933338929
 31
0.0
  0
LINE
  5
2396
  8
0
 62
     0
 10
34.477902952632768
 20
-5.5220969804557294
 30
0.0
 11
34.4870149226509
 21
-5.5129850104375979
 31
0.0
  0
LINE
  5
2397
  8
0
 62
     0
 10
34.375000039401051
 20
-5.6249998936874492
 30
0.0
 11
34.397097126313128
 21
-5.6029028067753677
 31
0.0
  0
LINE
  5
2398
  8
0
 62
     0
 10
34.227902952345168
 20
-5.64709698095308
 30
0.0
 11
34.250000039257237
 21
-5.6249998940410011
 31
0.0
  0
LINE
  5
2399
  8
0
 62
     0
 10
34.227902952345168
 20
-5.5220969811628331
 30
0.0
 11
34.250000039257237
 21
-5.4999998942507524
 31
0.0
  0
LINE
  5
239A
  8
0
 62
     0
 10
34.125000039113459
 20
-5.6249998943945521
 30
0.0
 11
34.147097126025528
 21
-5.6029028074824732
 31
0.0
  0
LINE
  5
239B
  8
0
 62
     0
 10
34.125000039113459
 20
-5.4999998946043043
 30
0.0
 11
34.140331396298791
 21
-5.4846685374189716
 31
0.0
  0
LINE
  5
239C
  8
0
 62
     0
 10
33.97790295205759
 20
-5.6470969816601819
 30
0.0
 11
34.000000038969652
 21
-5.624999894748103
 31
0.0
  0
LINE
  5
239D
  8
0
 62
     0
 10
33.977902952057569
 20
-5.5220969818699439
 30
0.0
 11
34.000000038969652
 21
-5.499999894957865
 31
0.0
  0
LINE
  5
239E
  8
0
 62
     0
 10
33.875000038825853
 20
-5.6249998951016638
 30
0.0
 11
33.897097125737929
 21
-5.602902808189584
 31
0.0
  0
LINE
  5
239F
  8
0
 62
     0
 10
33.875000038825853
 20
-5.4999998953114151
 30
0.0
 11
33.897097125737929
 21
-5.4779028083993371
 31
0.0
  0
LINE
  5
23A0
  8
0
 62
     0
 10
33.727902951769977
 20
-5.6470969823672963
 30
0.0
 11
33.750000038682053
 21
-5.6249998954552147
 31
0.0
  0
LINE
  5
23A1
  8
0
 62
     0
 10
33.629783799250532
 20
-5.7452161348867499
 30
0.0
 11
33.647097125450337
 21
-5.7279028086869364
 31
0.0
  0
LINE
  5
23A2
  8
0
 62
     0
 10
33.72790295176997
 20
-5.5220969825770467
 30
0.0
 11
33.750000038682053
 21
-5.4999998956649669
 31
0.0
  0
LINE
  5
23A3
  8
0
 62
     0
 10
33.625000038538253
 20
-5.6249998958087684
 30
0.0
 11
33.64709712545033
 21
-5.6029028088966868
 31
0.0
  0
LINE
  5
23A4
  8
0
 62
     0
 10
33.494043565170813
 20
-5.7559563691762232
 30
0.0
 11
33.500000038394461
 21
-5.7499998959525671
 31
0.0
  0
LINE
  5
23A5
  8
0
 62
     0
 10
33.625000038538253
 20
-5.499999896018517
 30
0.0
 11
33.64709712545033
 21
-5.4779028091064381
 31
0.0
  0
LINE
  5
23A6
  8
0
 62
     0
 10
33.477902951482378
 20
-5.6470969830743956
 30
0.0
 11
33.500000038394461
 21
-5.6249998961623158
 31
0.0
  0
LINE
  5
23A7
  8
0
 62
     0
 10
33.375000038250661
 20
-5.7499998963061172
 30
0.0
 11
33.397097125162738
 21
-5.7279028093940356
 31
0.0
  0
LINE
  5
23A8
  8
0
 62
     0
 10
33.47790295148237
 20
-5.5220969832841531
 30
0.0
 11
33.500000038394461
 21
-5.4999998963720751
 31
0.0
  0
LINE
  5
23A9
  8
0
 62
     0
 10
33.375000038250647
 20
-5.624999896515873
 30
0.0
 11
33.39709712516273
 21
-5.6029028096037932
 31
0.0
  0
LINE
  5
23AA
  8
0
 62
     0
 10
33.227902951194771
 20
-5.7720969835717533
 30
0.0
 11
33.250000038106862
 21
-5.7499998966596726
 31
0.0
  0
LINE
  5
23AB
  8
0
 62
     0
 10
33.375000038250647
 20
-5.4999998967256252
 30
0.0
 11
33.39709712516273
 21
-5.4779028098135454
 31
0.0
  0
LINE
  5
23AC
  8
0
 62
     0
 10
33.227902951194771
 20
-5.6470969837815028
 30
0.0
 11
33.250000038106862
 21
-5.624999896869423
 31
0.0
  0
LINE
  5
23AD
  8
0
 62
     0
 10
33.125000037963069
 20
-5.7499998970132227
 30
0.0
 11
33.147097124875138
 21
-5.7279028101011429
 31
0.0
  0
LINE
  5
23AE
  8
0
 62
     0
 10
33.227902951194771
 20
-5.522096983991255
 30
0.0
 11
33.250000038106862
 21
-5.499999897079177
 31
0.0
  0
LINE
  5
23AF
  8
0
 62
     0
 10
33.125000037963048
 20
-5.6249998972229749
 30
0.0
 11
33.147097124875131
 21
-5.602902810310896
 31
0.0
  0
LINE
  5
23B0
  8
0
 62
     0
 10
32.977902950907179
 20
-5.7720969842788561
 30
0.0
 11
33.000000037819269
 21
-5.7499998973667763
 31
0.0
  0
LINE
  5
23B1
  8
0
 62
     0
 10
33.125000037963048
 20
-5.4999998974327324
 30
0.0
 11
33.147097124875131
 21
-5.4779028105206518
 31
0.0
  0
LINE
  5
23B2
  8
0
 62
     0
 10
32.977902950907179
 20
-5.647096984488611
 30
0.0
 11
33.000000037819269
 21
-5.6249998975765321
 31
0.0
  0
LINE
  5
23B3
  8
0
 62
     0
 10
32.87500003767547
 20
-5.7499998977203308
 30
0.0
 11
32.897097124587539
 21
-5.727902810808251
 31
0.0
  0
LINE
  5
23B4
  8
0
 62
     0
 10
32.977902950907172
 20
-5.522096984698373
 30
0.0
 11
33.000000037819241
 21
-5.4999998977862941
 31
0.0
  0
LINE
  5
23B5
  8
0
 62
     0
 10
32.875000037675449
 20
-5.6249998979300928
 30
0.0
 11
32.897097124587532
 21
-5.602902811018013
 31
0.0
  0
LINE
  5
23B6
  8
0
 62
     0
 10
32.72790295061958
 20
-5.772096984985974
 30
0.0
 11
32.750000037531649
 21
-5.7499998980738942
 31
0.0
  0
LINE
  5
23B7
  8
0
 62
     0
 10
32.977902950907172
 20
-5.397096984908119
 30
0.0
 11
32.981981241082593
 21
-5.393018694732703
 31
0.0
  0
LINE
  5
23B8
  8
0
 62
     0
 10
32.87500003767547
 20
-5.4999998981398388
 30
0.0
 11
32.897097124587532
 21
-5.477902811227759
 31
0.0
  0
LINE
  5
23B9
  8
0
 62
     0
 10
32.72790295061958
 20
-5.64709698519572
 30
0.0
 11
32.75000003753167
 21
-5.6249998982836402
 31
0.0
  0
LINE
  5
23BA
  8
0
 62
     0
 10
32.625000037387863
 20
-5.7499998984274381
 30
0.0
 11
32.64709712429994
 21
-5.7279028115153601
 31
0.0
  0
LINE
  5
23BB
  8
0
 62
     0
 10
32.72790295061958
 20
-5.5220969854054731
 30
0.0
 11
32.750000037531649
 21
-5.4999998984933924
 31
0.0
  0
LINE
  5
23BC
  8
0
 62
     0
 10
32.625000037387863
 20
-5.6249998986371921
 30
0.0
 11
32.647097124299933
 21
-5.6029028117251132
 31
0.0
  0
LINE
  5
23BD
  8
0
 62
     0
 10
32.47790295033198
 20
-5.7720969856930724
 30
0.0
 11
32.50000003724405
 21
-5.7499998987809908
 31
0.0
  0
LINE
  5
23BE
  8
0
 62
     0
 10
32.72790295061958
 20
-5.3970969856152271
 30
0.0
 11
32.749803122957253
 21
-5.3751968132775474
 31
0.0
  0
LINE
  5
23BF
  8
0
 62
     0
 10
32.625000037387863
 20
-5.4999998988469452
 30
0.0
 11
32.647097124299933
 21
-5.4779028119348672
 31
0.0
  0
LINE
  5
23C0
  8
0
 62
     0
 10
32.47790295033198
 20
-5.6470969859028246
 30
0.0
 11
32.50000003724405
 21
-5.6249998989907448
 31
0.0
  0
LINE
  5
23C1
  8
0
 62
     0
 10
32.375000037100271
 20
-5.7499998991345453
 30
0.0
 11
32.39709712401234
 21
-5.7279028122224647
 31
0.0
  0
LINE
  5
23C2
  8
0
 62
     0
 10
32.625000037387849
 20
-5.3749998990567027
 30
0.0
 11
32.633650275907961
 21
-5.366349660536609
 31
0.0
  0
LINE
  5
23C3
  8
0
 62
     0
 10
32.47790295033198
 20
-5.522096986112583
 30
0.0
 11
32.50000003724405
 21
-5.4999998992005041
 31
0.0
  0
LINE
  5
23C4
  8
0
 62
     0
 10
32.37500003710025
 20
-5.624999899344302
 30
0.0
 11
32.397097124012333
 21
-5.6029028124322231
 31
0.0
  0
LINE
  5
23C5
  8
0
 62
     0
 10
32.227902950044381
 20
-5.7720969864001832
 30
0.0
 11
32.25000003695645
 21
-5.7499998994881043
 31
0.0
  0
LINE
  5
23C6
  8
0
 62
     0
 10
32.1403589099057
 20
-5.8596410265388652
 30
0.0
 11
32.147097123724727
 21
-5.8529028127198233
 31
0.0
  0
LINE
  5
23C7
  8
0
 62
     0
 10
32.47790295033198
 20
-5.3970969863223308
 30
0.0
 11
32.50000003724405
 21
-5.374999899410251
 31
0.0
  0
LINE
  5
23C8
  8
0
 62
     0
 10
32.37500003710025
 20
-5.4999998995540524
 30
0.0
 11
32.397097124012333
 21
-5.4779028126419709
 31
0.0
  0
LINE
  5
23C9
  8
0
 62
     0
 10
32.227902950044381
 20
-5.647096986609931
 30
0.0
 11
32.25000003695645
 21
-5.6249998996978521
 31
0.0
  0
LINE
  5
23CA
  8
0
 62
     0
 10
32.125000036812672
 20
-5.7499998998416499
 30
0.0
 11
32.147097123724727
 21
-5.727902812929571
 31
0.0
  0
LINE
  5
23CB
  8
0
 62
     0
 10
32.37500003710025
 20
-5.3749998997638082
 30
0.0
 11
32.397097124012333
 21
-5.3529028128517284
 31
0.0
  0
LINE
  5
23CC
  8
0
 62
     0
 10
32.227902950044381
 20
-5.5220969868196867
 30
0.0
 11
32.25000003695645
 21
-5.4999998999076061
 31
0.0
  0
LINE
  5
23CD
  8
0
 62
     0
 10
32.125000036812658
 20
-5.6249999000514066
 30
0.0
 11
32.147097123724727
 21
-5.6029028131393259
 31
0.0
  0
LINE
  5
23CE
  8
0
 62
     0
 10
31.977902949756778
 20
-5.772096987107286
 30
0.0
 11
32.000000036668851
 21
-5.7499999001952071
 31
0.0
  0
LINE
  5
23CF
  8
0
 62
     0
 10
32.227902950044381
 20
-5.3970969870294407
 30
0.0
 11
32.25000003695645
 21
-5.374999900117361
 31
0.0
  0
LINE
  5
23D0
  8
0
 62
     0
 10
32.125000036812672
 20
-5.4999999002611606
 30
0.0
 11
32.147097123724727
 21
-5.4779028133490808
 31
0.0
  0
LINE
  5
23D1
  8
0
 62
     0
 10
31.977902949756789
 20
-5.64709698731704
 30
0.0
 11
32.000000036668851
 21
-5.624999900404962
 31
0.0
  0
LINE
  5
23D2
  8
0
 62
     0
 10
32.125000036812658
 20
-5.3749999004709181
 30
0.0
 11
32.147097123724727
 21
-5.3529028135588392
 31
0.0
  0
LINE
  5
23D3
  8
0
 62
     0
 10
31.977902949756778
 20
-5.5220969875267967
 30
0.0
 11
32.000000036668851
 21
-5.4999999006147169
 31
0.0
  0
LINE
  5
23D4
  8
0
 62
     0
 10
31.977902949756778
 20
-5.3970969877365533
 30
0.0
 11
32.000000036668851
 21
-5.3749999008244727
 31
0.0
  0
LINE
  5
23D5
  8
0
 62
     0
 10
33.5
 20
-5.75
 30
0.0
 11
33.56942069701509
 21
-5.75
 31
0.0
  0
LINE
  5
23D6
  8
0
 62
     0
 10
33.25
 20
-5.75
 30
0.0
 11
33.375
 21
-5.75
 31
0.0
  0
LINE
  5
23D7
  8
0
 62
     0
 10
33.0
 20
-5.75
 30
0.0
 11
33.125
 21
-5.75
 31
0.0
  0
LINE
  5
23D8
  8
0
 62
     0
 10
32.75
 20
-5.75
 30
0.0
 11
32.875
 21
-5.75
 31
0.0
  0
LINE
  5
23D9
  8
0
 62
     0
 10
32.5
 20
-5.75
 30
0.0
 11
32.625
 21
-5.75
 31
0.0
  0
LINE
  5
23DA
  8
0
 62
     0
 10
32.25
 20
-5.75
 30
0.0
 11
32.375
 21
-5.75
 31
0.0
  0
LINE
  5
23DB
  8
0
 62
     0
 10
32.0
 20
-5.75
 30
0.0
 11
32.125
 21
-5.75
 31
0.0
  0
LINE
  5
23DC
  8
0
 62
     0
 10
35.0
 20
-5.625
 30
0.0
 11
35.098520923420487
 21
-5.625
 31
0.0
  0
LINE
  5
23DD
  8
0
 62
     0
 10
34.75
 20
-5.625
 30
0.0
 11
34.875
 21
-5.625
 31
0.0
  0
LINE
  5
23DE
  8
0
 62
     0
 10
34.5
 20
-5.625
 30
0.0
 11
34.625
 21
-5.625
 31
0.0
  0
LINE
  5
23DF
  8
0
 62
     0
 10
34.25
 20
-5.625
 30
0.0
 11
34.375
 21
-5.625
 31
0.0
  0
LINE
  5
23E0
  8
0
 62
     0
 10
34.0
 20
-5.625
 30
0.0
 11
34.125
 21
-5.625
 31
0.0
  0
LINE
  5
23E1
  8
0
 62
     0
 10
33.75
 20
-5.625
 30
0.0
 11
33.875
 21
-5.625
 31
0.0
  0
LINE
  5
23E2
  8
0
 62
     0
 10
33.5
 20
-5.625
 30
0.0
 11
33.625
 21
-5.625
 31
0.0
  0
LINE
  5
23E3
  8
0
 62
     0
 10
33.25
 20
-5.625
 30
0.0
 11
33.375
 21
-5.625
 31
0.0
  0
LINE
  5
23E4
  8
0
 62
     0
 10
33.0
 20
-5.625
 30
0.0
 11
33.125
 21
-5.625
 31
0.0
  0
LINE
  5
23E5
  8
0
 62
     0
 10
32.75
 20
-5.625
 30
0.0
 11
32.875
 21
-5.625
 31
0.0
  0
LINE
  5
23E6
  8
0
 62
     0
 10
32.5
 20
-5.625
 30
0.0
 11
32.625
 21
-5.625
 31
0.0
  0
LINE
  5
23E7
  8
0
 62
     0
 10
32.25
 20
-5.625
 30
0.0
 11
32.375
 21
-5.625
 31
0.0
  0
LINE
  5
23E8
  8
0
 62
     0
 10
32.0
 20
-5.625
 30
0.0
 11
32.125
 21
-5.625
 31
0.0
  0
LINE
  5
23E9
  8
0
 62
     0
 10
34.25
 20
-5.5
 30
0.0
 11
34.32865777003957
 21
-5.5
 31
0.0
  0
LINE
  5
23EA
  8
0
 62
     0
 10
34.0
 20
-5.5
 30
0.0
 11
34.125
 21
-5.5
 31
0.0
  0
LINE
  5
23EB
  8
0
 62
     0
 10
33.75
 20
-5.5
 30
0.0
 11
33.875
 21
-5.5
 31
0.0
  0
LINE
  5
23EC
  8
0
 62
     0
 10
33.5
 20
-5.5
 30
0.0
 11
33.625
 21
-5.5
 31
0.0
  0
LINE
  5
23ED
  8
0
 62
     0
 10
33.25
 20
-5.5
 30
0.0
 11
33.375
 21
-5.5
 31
0.0
  0
LINE
  5
23EE
  8
0
 62
     0
 10
33.0
 20
-5.5
 30
0.0
 11
33.125
 21
-5.5
 31
0.0
  0
LINE
  5
23EF
  8
0
 62
     0
 10
32.75
 20
-5.5
 30
0.0
 11
32.875
 21
-5.5
 31
0.0
  0
LINE
  5
23F0
  8
0
 62
     0
 10
32.5
 20
-5.5
 30
0.0
 11
32.625
 21
-5.5
 31
0.0
  0
LINE
  5
23F1
  8
0
 62
     0
 10
32.25
 20
-5.5
 30
0.0
 11
32.375
 21
-5.5
 31
0.0
  0
LINE
  5
23F2
  8
0
 62
     0
 10
32.0
 20
-5.5
 30
0.0
 11
32.125
 21
-5.5
 31
0.0
  0
LINE
  5
23F3
  8
0
 62
     0
 10
32.5
 20
-5.375
 30
0.0
 11
32.625
 21
-5.375
 31
0.0
  0
LINE
  5
23F4
  8
0
 62
     0
 10
32.25
 20
-5.375
 30
0.0
 11
32.375
 21
-5.375
 31
0.0
  0
LINE
  5
23F5
  8
0
 62
     0
 10
32.0
 20
-5.375
 30
0.0
 11
32.125
 21
-5.375
 31
0.0
  0
ENDBLK
  5
23F7
  8
0
  0
BLOCK
  8
0
  2
*X45
 70
     1
 10
0.0
 20
0.0
 30
0.0
  3
*X45
  1

  0
LINE
  5
23F9
  8
0
 62
     0
 10
31.735561817269929
 20
-5.8894381198039021
 30
0.0
 11
31.75000003638127
 21
-5.8749999006925551
 31
0.0
  0
LINE
  5
23FA
  8
0
 62
     0
 10
31.727902949469168
 20
-5.7720969878144013
 30
0.0
 11
31.750000036381259
 21
-5.7499999009023206
 31
0.0
  0
LINE
  5
23FB
  8
0
 62
     0
 10
31.625000036237459
 20
-5.874999901046122
 30
0.0
 11
31.647097123149528
 21
-5.8529028141340413
 31
0.0
  0
LINE
  5
23FC
  8
0
 62
     0
 10
31.727902949469168
 20
-5.6470969880241491
 30
0.0
 11
31.750000036381259
 21
-5.6249999011120684
 31
0.0
  0
LINE
  5
23FD
  8
0
 62
     0
 10
31.625000036237459
 20
-5.7499999012558671
 30
0.0
 11
31.647097123149528
 21
-5.7279028143437891
 31
0.0
  0
LINE
  5
23FE
  8
0
 62
     0
 10
31.47790294918158
 20
-5.8970969883117483
 30
0.0
 11
31.50000003609366
 21
-5.8749999013996668
 31
0.0
  0
LINE
  5
23FF
  8
0
 62
     0
 10
31.72790294946919
 20
-5.5220969882338951
 30
0.0
 11
31.75000003638127
 21
-5.4999999013218162
 31
0.0
  0
LINE
  5
2400
  8
0
 62
     0
 10
31.62500003623747
 20
-5.624999901465614
 30
0.0
 11
31.64709712314956
 21
-5.602902814553536
 31
0.0
  0
LINE
  5
2401
  8
0
 62
     0
 10
31.47790294918159
 20
-5.7720969885214952
 30
0.0
 11
31.50000003609367
 21
-5.7499999016094163
 31
0.0
  0
LINE
  5
2402
  8
0
 62
     0
 10
31.375000035949871
 20
-5.8749999017532151
 30
0.0
 11
31.39709712286195
 21
-5.8529028148411353
 31
0.0
  0
LINE
  5
2403
  8
0
 62
     0
 10
31.727902949469168
 20
-5.3970969884436517
 30
0.0
 11
31.750000036381259
 21
-5.3749999015315719
 31
0.0
  0
LINE
  5
2404
  8
0
 62
     0
 10
31.625000036237459
 20
-5.4999999016753716
 30
0.0
 11
31.647097123149528
 21
-5.4779028147632918
 31
0.0
  0
LINE
  5
2405
  8
0
 62
     0
 10
31.47790294918158
 20
-5.647096988731251
 30
0.0
 11
31.50000003609366
 21
-5.6249999018191721
 31
0.0
  0
LINE
  5
2406
  8
0
 62
     0
 10
31.375000035949871
 20
-5.7499999019629708
 30
0.0
 11
31.39709712286194
 21
-5.727902815050891
 31
0.0
  0
LINE
  5
2407
  8
0
 62
     0
 10
31.227902948893981
 20
-5.897096989018852
 30
0.0
 11
31.25000003580606
 21
-5.8749999021067723
 31
0.0
  0
LINE
  5
2408
  8
0
 62
     0
 10
31.625000036237459
 20
-5.3749999018851318
 30
0.0
 11
31.647097123149528
 21
-5.352902814973052
 31
0.0
  0
LINE
  5
2409
  8
0
 62
     0
 10
31.47790294918158
 20
-5.5220969889410121
 30
0.0
 11
31.50000003609366
 21
-5.4999999020289332
 31
0.0
  0
LINE
  5
240A
  8
0
 62
     0
 10
31.375000035949871
 20
-5.624999902172731
 30
0.0
 11
31.39709712286194
 21
-5.602902815260653
 31
0.0
  0
LINE
  5
240B
  8
0
 62
     0
 10
31.227902948893981
 20
-5.7720969892286123
 30
0.0
 11
31.25000003580606
 21
-5.7499999023165307
 31
0.0
  0
LINE
  5
240C
  8
0
 62
     0
 10
31.125000035662271
 20
-5.8749999024603321
 30
0.0
 11
31.147097122574358
 21
-5.8529028155482523
 31
0.0
  0
LINE
  5
240D
  8
0
 62
     0
 10
31.47790294918158
 20
-5.3970969891507652
 30
0.0
 11
31.50000003609366
 21
-5.3749999022386836
 31
0.0
  0
LINE
  5
240E
  8
0
 62
     0
 10
31.375000035949871
 20
-5.499999902382485
 30
0.0
 11
31.39709712286194
 21
-5.4779028154704044
 31
0.0
  0
LINE
  5
240F
  8
0
 62
     0
 10
31.227902948893981
 20
-5.6470969894383627
 30
0.0
 11
31.25000003580606
 21
-5.6249999025262829
 31
0.0
  0
LINE
  5
2410
  8
0
 62
     0
 10
31.125000035662271
 20
-5.7499999026700843
 30
0.0
 11
31.147097122574358
 21
-5.7279028157580028
 31
0.0
  0
LINE
  5
2411
  8
0
 62
     0
 10
30.977902948606388
 20
-5.8970969897259611
 30
0.0
 11
31.000000035518461
 21
-5.8749999028138831
 31
0.0
  0
LINE
  5
2412
  8
0
 62
     0
 10
31.375000035949871
 20
-5.3749999025922364
 30
0.0
 11
31.39709712286195
 21
-5.3529028156801557
 31
0.0
  0
LINE
  5
2413
  8
0
 62
     0
 10
31.227902948893991
 20
-5.5220969896481149
 30
0.0
 11
31.250000035806071
 21
-5.499999902736036
 31
0.0
  0
LINE
  5
2414
  8
0
 62
     0
 10
31.125000035662271
 20
-5.6249999028798348
 30
0.0
 11
31.147097122574358
 21
-5.602902815967755
 31
0.0
  0
LINE
  5
2415
  8
0
 62
     0
 10
30.977902948606388
 20
-5.7720969899357151
 30
0.0
 11
31.000000035518472
 21
-5.7499999030236362
 31
0.0
  0
LINE
  5
2416
  8
0
 62
     0
 10
30.875000035374669
 20
-5.874999903167434
 30
0.0
 11
30.897097122286748
 21
-5.852902816255356
 31
0.0
  0
LINE
  5
2417
  8
0
 62
     0
 10
31.227902948893991
 20
-5.3970969898578627
 30
0.0
 11
31.250000035806071
 21
-5.374999902945782
 31
0.0
  0
LINE
  5
2418
  8
0
 62
     0
 10
31.125000035662271
 20
-5.4999999030895843
 30
0.0
 11
31.147097122574358
 21
-5.4779028161775027
 31
0.0
  0
LINE
  5
2419
  8
0
 62
     0
 10
30.977902948606388
 20
-5.647096990145462
 30
0.0
 11
31.000000035518472
 21
-5.6249999032333831
 31
0.0
  0
LINE
  5
241A
  8
0
 62
     0
 10
30.875000035374669
 20
-5.7499999033771809
 30
0.0
 11
30.897097122286748
 21
-5.727902816465102
 31
0.0
  0
LINE
  5
241B
  8
0
 62
     0
 10
30.727902948318789
 20
-5.8970969904330621
 30
0.0
 11
30.750000035230869
 21
-5.8749999035209823
 31
0.0
  0
LINE
  5
241C
  8
0
 62
     0
 10
31.227902948893981
 20
-5.2720969900676291
 30
0.0
 11
31.236482286135949
 21
-5.2635176528256684
 31
0.0
  0
LINE
  5
241D
  8
0
 62
     0
 10
31.125000035662271
 20
-5.3749999032993481
 30
0.0
 11
31.147097122574358
 21
-5.3529028163872701
 31
0.0
  0
LINE
  5
241E
  8
0
 62
     0
 10
30.977902948606388
 20
-5.5220969903552284
 30
0.0
 11
31.000000035518461
 21
-5.4999999034431477
 31
0.0
  0
LINE
  5
241F
  8
0
 62
     0
 10
30.875000035374669
 20
-5.6249999035869491
 30
0.0
 11
30.897097122286748
 21
-5.6029028166748676
 31
0.0
  0
LINE
  5
2420
  8
0
 62
     0
 10
30.727902948318789
 20
-5.7720969906428268
 30
0.0
 11
30.750000035230869
 21
-5.749999903730747
 31
0.0
  0
LINE
  5
2421
  8
0
 62
     0
 10
30.625000035087069
 20
-5.8749999038745484
 30
0.0
 11
30.647097121999149
 21
-5.8529028169624668
 31
0.0
  0
LINE
  5
2422
  8
0
 62
     0
 10
30.977902948606388
 20
-5.3970969905649797
 30
0.0
 11
31.000000035518461
 21
-5.3749999036528999
 31
0.0
  0
LINE
  5
2423
  8
0
 62
     0
 10
30.875000035374669
 20
-5.4999999037966996
 30
0.0
 11
30.897097122286748
 21
-5.4779028168846198
 31
0.0
  0
LINE
  5
2424
  8
0
 62
     0
 10
30.727902948318789
 20
-5.647096990852579
 30
0.0
 11
30.750000035230869
 21
-5.6249999039405001
 31
0.0
  0
LINE
  5
2425
  8
0
 62
     0
 10
30.625000035087069
 20
-5.7499999040842988
 30
0.0
 11
30.647097121999149
 21
-5.7279028171722191
 31
0.0
  0
LINE
  5
2426
  8
0
 62
     0
 10
30.4779029480312
 20
-5.89709699114018
 30
0.0
 11
30.50000003494327
 21
-5.8749999042281003
 31
0.0
  0
LINE
  5
2427
  8
0
 62
     0
 10
30.390546573471081
 20
-5.9844533657002881
 30
0.0
 11
30.39709712171155
 21
-5.9779028174598201
 31
0.0
  0
LINE
  5
2428
  8
0
 62
     0
 10
30.977902948606388
 20
-5.272096990774731
 30
0.0
 11
31.000000035518472
 21
-5.249999903862653
 31
0.0
  0
LINE
  5
2429
  8
0
 62
     0
 10
30.875000035374669
 20
-5.3749999040064509
 30
0.0
 11
30.897097122286748
 21
-5.3529028170943711
 31
0.0
  0
LINE
  5
242A
  8
0
 62
     0
 10
30.727902948318789
 20
-5.5220969910623321
 30
0.0
 11
30.750000035230869
 21
-5.4999999041502523
 31
0.0
  0
LINE
  5
242B
  8
0
 62
     0
 10
30.625000035087069
 20
-5.6249999042940511
 30
0.0
 11
30.647097121999149
 21
-5.6029028173819722
 31
0.0
  0
LINE
  5
242C
  8
0
 62
     0
 10
30.4779029480312
 20
-5.7720969913499314
 30
0.0
 11
30.50000003494327
 21
-5.7499999044378498
 31
0.0
  0
LINE
  5
242D
  8
0
 62
     0
 10
30.37500003479947
 20
-5.8749999045816512
 30
0.0
 11
30.39709712171155
 21
-5.8529028176695714
 31
0.0
  0
LINE
  5
242E
  8
0
 62
     0
 10
30.875000035374669
 20
-5.2499999042162031
 30
0.0
 11
30.886223373375081
 21
-5.238776566215801
 31
0.0
  0
LINE
  5
242F
  8
0
 62
     0
 10
30.727902948318789
 20
-5.3970969912720843
 30
0.0
 11
30.750000035230869
 21
-5.3749999043600027
 31
0.0
  0
LINE
  5
2430
  8
0
 62
     0
 10
30.625000035087069
 20
-5.4999999045038042
 30
0.0
 11
30.647097121999149
 21
-5.4779028175917244
 31
0.0
  0
LINE
  5
2431
  8
0
 62
     0
 10
30.4779029480312
 20
-5.6470969915596818
 30
0.0
 11
30.50000003494327
 21
-5.624999904647602
 31
0.0
  0
LINE
  5
2432
  8
0
 62
     0
 10
30.37500003479947
 20
-5.7499999047914034
 30
0.0
 11
30.39709712171155
 21
-5.7279028178793219
 31
0.0
  0
LINE
  5
2433
  8
0
 62
     0
 10
30.227902947743591
 20
-5.897096991847282
 30
0.0
 11
30.25000003465567
 21
-5.8749999049352031
 31
0.0
  0
LINE
  5
2434
  8
0
 62
     0
 10
30.125000034511871
 20
-5.9999999050790009
 30
0.0
 11
30.14709712142395
 21
-5.977902818166922
 31
0.0
  0
LINE
  5
2435
  8
0
 62
     0
 10
30.727902948318789
 20
-5.272096991481833
 30
0.0
 11
30.750000035230869
 21
-5.2499999045697532
 31
0.0
  0
LINE
  5
2436
  8
0
 62
     0
 10
30.625000035087069
 20
-5.3749999047135528
 30
0.0
 11
30.64709712199916
 21
-5.352902817801473
 31
0.0
  0
LINE
  5
2437
  8
0
 62
     0
 10
30.4779029480312
 20
-5.5220969917694331
 30
0.0
 11
30.50000003494327
 21
-5.4999999048573533
 31
0.0
  0
LINE
  5
2438
  8
0
 62
     0
 10
30.37500003479947
 20
-5.6249999050011521
 30
0.0
 11
30.39709712171156
 21
-5.6029028180890732
 31
0.0
  0
LINE
  5
2439
  8
0
 62
     0
 10
30.227902947743601
 20
-5.7720969920570324
 30
0.0
 11
30.250000034655681
 21
-5.7499999051449517
 31
0.0
  0
LINE
  5
243A
  8
0
 62
     0
 10
30.125000034511871
 20
-5.8749999052887532
 30
0.0
 11
30.147097121423961
 21
-5.8529028183766734
 31
0.0
  0
LINE
  5
243B
  8
0
 62
     0
 10
29.988323753089571
 20
-6.0116761867110524
 30
0.0
 11
30.000000034368082
 21
-5.999999905432551
 31
0.0
  0
LINE
  5
243C
  8
0
 62
     0
 10
30.625000035087069
 20
-5.2499999049233104
 30
0.0
 11
30.64709712199916
 21
-5.2279028180112288
 31
0.0
  0
LINE
  5
243D
  8
0
 62
     0
 10
30.4779029480312
 20
-5.397096991979188
 30
0.0
 11
30.50000003494327
 21
-5.37499990506711
 31
0.0
  0
LINE
  5
243E
  8
0
 62
     0
 10
30.37500003479947
 20
-5.4999999052109079
 30
0.0
 11
30.39709712171156
 21
-5.4779028182988281
 31
0.0
  0
LINE
  5
243F
  8
0
 62
     0
 10
30.227902947743601
 20
-5.6470969922667891
 30
0.0
 11
30.250000034655681
 21
-5.6249999053547084
 31
0.0
  0
LINE
  5
2440
  8
0
 62
     0
 10
30.125000034511871
 20
-5.749999905498508
 30
0.0
 11
30.147097121423961
 21
-5.7279028185864291
 31
0.0
  0
LINE
  5
2441
  8
0
 62
     0
 10
29.977902947455998
 20
-5.8970969925543892
 30
0.0
 11
30.000000034368082
 21
-5.8749999056423068
 31
0.0
  0
LINE
  5
2442
  8
0
 62
     0
 10
29.875000034224271
 20
-5.9999999057861082
 30
0.0
 11
29.897097121136358
 21
-5.9779028188740284
 31
0.0
  0
LINE
  5
2443
  8
0
 62
     0
 10
30.4779029480312
 20
-5.2720969921889411
 30
0.0
 11
30.50000003494327
 21
-5.2499999052768622
 31
0.0
  0
LINE
  5
2444
  8
0
 62
     0
 10
30.37500003479947
 20
-5.3749999054206601
 30
0.0
 11
30.39709712171155
 21
-5.3529028185085821
 31
0.0
  0
LINE
  5
2445
  8
0
 62
     0
 10
30.227902947743591
 20
-5.5220969924765404
 30
0.0
 11
30.25000003465567
 21
-5.4999999055644597
 31
0.0
  0
LINE
  5
2446
  8
0
 62
     0
 10
30.125000034511871
 20
-5.6249999057082611
 30
0.0
 11
30.14709712142395
 21
-5.6029028187961796
 31
0.0
  0
LINE
  5
2447
  8
0
 62
     0
 10
29.977902947455991
 20
-5.7720969927641388
 30
0.0
 11
30.000000034368071
 21
-5.749999905852059
 31
0.0
  0
LINE
  5
2448
  8
0
 62
     0
 10
29.875000034224271
 20
-5.8749999059958604
 30
0.0
 11
29.897097121136351
 21
-5.8529028190837789
 31
0.0
  0
LINE
  5
2449
  8
0
 62
     0
 10
30.37500003479947
 20
-5.2499999056304141
 30
0.0
 11
30.39709712171155
 21
-5.2279028187183343
 31
0.0
  0
LINE
  5
244A
  8
0
 62
     0
 10
30.227902947743591
 20
-5.3970969926862917
 30
0.0
 11
30.25000003465567
 21
-5.3749999057742119
 31
0.0
  0
LINE
  5
244B
  8
0
 62
     0
 10
30.125000034511871
 20
-5.4999999059180116
 30
0.0
 11
30.14709712142395
 21
-5.4779028190059318
 31
0.0
  0
LINE
  5
244C
  8
0
 62
     0
 10
29.977902947455991
 20
-5.647096992973891
 30
0.0
 11
30.000000034368071
 21
-5.6249999060618121
 31
0.0
  0
LINE
  5
244D
  8
0
 62
     0
 10
29.875000034224271
 20
-5.7499999062056109
 30
0.0
 11
29.897097121136351
 21
-5.7279028192935311
 31
0.0
  0
LINE
  5
244E
  8
0
 62
     0
 10
30.227902947743601
 20
-5.2720969928960484
 30
0.0
 11
30.250000034655681
 21
-5.2499999059839668
 31
0.0
  0
LINE
  5
244F
  8
0
 62
     0
 10
30.125000034511871
 20
-5.3749999061277682
 30
0.0
 11
30.147097121423961
 21
-5.3529028192156867
 31
0.0
  0
LINE
  5
2450
  8
0
 62
     0
 10
29.977902947455998
 20
-5.5220969931836459
 30
0.0
 11
30.000000034368082
 21
-5.4999999062715661
 31
0.0
  0
LINE
  5
2451
  8
0
 62
     0
 10
29.875000034224271
 20
-5.6249999064153666
 30
0.0
 11
29.897097121136358
 21
-5.6029028195032859
 31
0.0
  0
LINE
  5
2452
  8
0
 62
     0
 10
30.125000034511881
 20
-5.2499999063375213
 30
0.0
 11
30.147097121423961
 21
-5.2279028194254407
 31
0.0
  0
LINE
  5
2453
  8
0
 62
     0
 10
29.977902947455998
 20
-5.3970969933933999
 30
0.0
 11
30.000000034368082
 21
-5.3749999064813201
 31
0.0
  0
LINE
  5
2454
  8
0
 62
     0
 10
29.875000034224279
 20
-5.4999999066251197
 30
0.0
 11
29.897097121136358
 21
-5.4779028197130399
 31
0.0
  0
LINE
  5
2455
  8
0
 62
     0
 10
29.977902947455998
 20
-5.2720969936031521
 30
0.0
 11
30.000000034368082
 21
-5.2499999066910732
 31
0.0
  0
LINE
  5
2456
  8
0
 62
     0
 10
29.875000034224279
 20
-5.3749999068348719
 30
0.0
 11
29.897097121136358
 21
-5.352902819922793
 31
0.0
  0
LINE
  5
2457
  8
0
 62
     0
 10
29.875000034224279
 20
-5.249999907044625
 30
0.0
 11
29.897097121136358
 21
-5.2279028201325453
 31
0.0
  0
LINE
  5
2458
  8
0
 62
     0
 10
30.0
 20
-6.0
 30
0.0
 11
30.125
 21
-6.0
 31
0.0
  0
LINE
  5
2459
  8
0
 62
     0
 10
29.812282877845529
 20
-6.0
 30
0.0
 11
29.875
 21
-6.0
 31
0.0
  0
LINE
  5
245A
  8
0
 62
     0
 10
31.75
 20
-5.875
 30
0.0
 11
31.838282877845529
 21
-5.875
 31
0.0
  0
LINE
  5
245B
  8
0
 62
     0
 10
31.5
 20
-5.875
 30
0.0
 11
31.625
 21
-5.875
 31
0.0
  0
LINE
  5
245C
  8
0
 62
     0
 10
31.25
 20
-5.875
 30
0.0
 11
31.375
 21
-5.875
 31
0.0
  0
LINE
  5
245D
  8
0
 62
     0
 10
31.0
 20
-5.875
 30
0.0
 11
31.125
 21
-5.875
 31
0.0
  0
LINE
  5
245E
  8
0
 62
     0
 10
30.75
 20
-5.875
 30
0.0
 11
30.875
 21
-5.875
 31
0.0
  0
LINE
  5
245F
  8
0
 62
     0
 10
30.5
 20
-5.875
 30
0.0
 11
30.625
 21
-5.875
 31
0.0
  0
LINE
  5
2460
  8
0
 62
     0
 10
30.25
 20
-5.875
 30
0.0
 11
30.375
 21
-5.875
 31
0.0
  0
LINE
  5
2461
  8
0
 62
     0
 10
30.0
 20
-5.875
 30
0.0
 11
30.125
 21
-5.875
 31
0.0
  0
LINE
  5
2462
  8
0
 62
     0
 10
29.812282877845529
 20
-5.875
 30
0.0
 11
29.875
 21
-5.875
 31
0.0
  0
LINE
  5
2463
  8
0
 62
     0
 10
31.75
 20
-5.75
 30
0.0
 11
31.838282877845529
 21
-5.75
 31
0.0
  0
LINE
  5
2464
  8
0
 62
     0
 10
31.5
 20
-5.75
 30
0.0
 11
31.625
 21
-5.75
 31
0.0
  0
LINE
  5
2465
  8
0
 62
     0
 10
31.25
 20
-5.75
 30
0.0
 11
31.375
 21
-5.75
 31
0.0
  0
LINE
  5
2466
  8
0
 62
     0
 10
31.0
 20
-5.75
 30
0.0
 11
31.125
 21
-5.75
 31
0.0
  0
LINE
  5
2467
  8
0
 62
     0
 10
30.75
 20
-5.75
 30
0.0
 11
30.875
 21
-5.75
 31
0.0
  0
LINE
  5
2468
  8
0
 62
     0
 10
30.5
 20
-5.75
 30
0.0
 11
30.625
 21
-5.75
 31
0.0
  0
LINE
  5
2469
  8
0
 62
     0
 10
30.25
 20
-5.75
 30
0.0
 11
30.375
 21
-5.75
 31
0.0
  0
LINE
  5
246A
  8
0
 62
     0
 10
30.0
 20
-5.75
 30
0.0
 11
30.125
 21
-5.75
 31
0.0
  0
LINE
  5
246B
  8
0
 62
     0
 10
29.812282877845529
 20
-5.75
 30
0.0
 11
29.875
 21
-5.75
 31
0.0
  0
LINE
  5
246C
  8
0
 62
     0
 10
31.75
 20
-5.625
 30
0.0
 11
31.838282877845529
 21
-5.625
 31
0.0
  0
LINE
  5
246D
  8
0
 62
     0
 10
31.5
 20
-5.625
 30
0.0
 11
31.625
 21
-5.625
 31
0.0
  0
LINE
  5
246E
  8
0
 62
     0
 10
31.25
 20
-5.625
 30
0.0
 11
31.375
 21
-5.625
 31
0.0
  0
LINE
  5
246F
  8
0
 62
     0
 10
31.0
 20
-5.625
 30
0.0
 11
31.125
 21
-5.625
 31
0.0
  0
LINE
  5
2470
  8
0
 62
     0
 10
30.75
 20
-5.625
 30
0.0
 11
30.875
 21
-5.625
 31
0.0
  0
LINE
  5
2471
  8
0
 62
     0
 10
30.5
 20
-5.625
 30
0.0
 11
30.625
 21
-5.625
 31
0.0
  0
LINE
  5
2472
  8
0
 62
     0
 10
30.25
 20
-5.625
 30
0.0
 11
30.375
 21
-5.625
 31
0.0
  0
LINE
  5
2473
  8
0
 62
     0
 10
30.0
 20
-5.625
 30
0.0
 11
30.125
 21
-5.625
 31
0.0
  0
LINE
  5
2474
  8
0
 62
     0
 10
29.812282877845529
 20
-5.625
 30
0.0
 11
29.875
 21
-5.625
 31
0.0
  0
LINE
  5
2475
  8
0
 62
     0
 10
31.75
 20
-5.5
 30
0.0
 11
31.838282877845529
 21
-5.5
 31
0.0
  0
LINE
  5
2476
  8
0
 62
     0
 10
31.5
 20
-5.5
 30
0.0
 11
31.625
 21
-5.5
 31
0.0
  0
LINE
  5
2477
  8
0
 62
     0
 10
31.25
 20
-5.5
 30
0.0
 11
31.375
 21
-5.5
 31
0.0
  0
LINE
  5
2478
  8
0
 62
     0
 10
31.0
 20
-5.5
 30
0.0
 11
31.125
 21
-5.5
 31
0.0
  0
LINE
  5
2479
  8
0
 62
     0
 10
30.75
 20
-5.5
 30
0.0
 11
30.875
 21
-5.5
 31
0.0
  0
LINE
  5
247A
  8
0
 62
     0
 10
30.5
 20
-5.5
 30
0.0
 11
30.625
 21
-5.5
 31
0.0
  0
LINE
  5
247B
  8
0
 62
     0
 10
30.25
 20
-5.5
 30
0.0
 11
30.375
 21
-5.5
 31
0.0
  0
LINE
  5
247C
  8
0
 62
     0
 10
30.0
 20
-5.5
 30
0.0
 11
30.125
 21
-5.5
 31
0.0
  0
LINE
  5
247D
  8
0
 62
     0
 10
29.812282877845529
 20
-5.5
 30
0.0
 11
29.875
 21
-5.5
 31
0.0
  0
LINE
  5
247E
  8
0
 62
     0
 10
31.75
 20
-5.375
 30
0.0
 11
31.838282877845518
 21
-5.375
 31
0.0
  0
LINE
  5
247F
  8
0
 62
     0
 10
31.5
 20
-5.375
 30
0.0
 11
31.625
 21
-5.375
 31
0.0
  0
LINE
  5
2480
  8
0
 62
     0
 10
31.25
 20
-5.375
 30
0.0
 11
31.375
 21
-5.375
 31
0.0
  0
LINE
  5
2481
  8
0
 62
     0
 10
31.0
 20
-5.375
 30
0.0
 11
31.125
 21
-5.375
 31
0.0
  0
LINE
  5
2482
  8
0
 62
     0
 10
30.75
 20
-5.375
 30
0.0
 11
30.875
 21
-5.375
 31
0.0
  0
LINE
  5
2483
  8
0
 62
     0
 10
30.5
 20
-5.375
 30
0.0
 11
30.625
 21
-5.375
 31
0.0
  0
LINE
  5
2484
  8
0
 62
     0
 10
30.25
 20
-5.375
 30
0.0
 11
30.375
 21
-5.375
 31
0.0
  0
LINE
  5
2485
  8
0
 62
     0
 10
30.0
 20
-5.375
 30
0.0
 11
30.125
 21
-5.375
 31
0.0
  0
LINE
  5
2486
  8
0
 62
     0
 10
29.812282877845529
 20
-5.375
 30
0.0
 11
29.875
 21
-5.375
 31
0.0
  0
LINE
  5
2487
  8
0
 62
     0
 10
31.0
 20
-5.25
 30
0.0
 11
31.045843603571029
 21
-5.25
 31
0.0
  0
LINE
  5
2488
  8
0
 62
     0
 10
30.75
 20
-5.25
 30
0.0
 11
30.875
 21
-5.25
 31
0.0
  0
LINE
  5
2489
  8
0
 62
     0
 10
30.5
 20
-5.25
 30
0.0
 11
30.625
 21
-5.25
 31
0.0
  0
LINE
  5
248A
  8
0
 62
     0
 10
30.25
 20
-5.25
 30
0.0
 11
30.375
 21
-5.25
 31
0.0
  0
LINE
  5
248B
  8
0
 62
     0
 10
30.0
 20
-5.25
 30
0.0
 11
30.125
 21
-5.25
 31
0.0
  0
LINE
  5
248C
  8
0
 62
     0
 10
29.812282877845529
 20
-5.25
 30
0.0
 11
29.875
 21
-5.25
 31
0.0
  0
ENDBLK
  5
248E
  8
0
  0
BLOCK
  8
0
  2
*U46
 70
     1
 10
0.0
 20
0.0
 30
0.0
  3
*U46
  1

  0
TEXT
  5
2490
  8
0
 62
     5
 10
28.05550885118846
 20
-6.9078281646667206
 30
0.0
 40
0.135
  1
1/16" SHEET IN-FILL (TOP)
  0
ENDBLK
  5
2492
  8
0
  0
BLOCK
  8
0
  2
*U47
 70
     1
 10
0.0
 20
0.0
 30
0.0
  3
*U47
  1

  0
SOLID
  5
2494
  8
0
  6
CONTINUOUS
 10
30.338658782311931
 20
-5.5943352967775137
 30
0.0
 11
30.33271801878076
 21
-5.5967960416029774
 31
0.0
 12
30.344599545843099
 22
-5.5967960416029774
 32
0.0
 13
30.344599545843099
 23
-5.5967960416029774
 33
0.0
  0
SOLID
  5
2495
  8
0
  6
CONTINUOUS
 10
30.33271801878076
 20
-5.5967960416029774
 30
0.0
 11
30.330257273955301
 21
-5.602736805134148
 31
0.0
 12
30.347060290668569
 22
-5.602736805134148
 32
0.0
 13
30.347060290668569
 23
-5.602736805134148
 33
0.0
  0
SOLID
  5
2496
  8
0
  6
CONTINUOUS
 10
-30.33271801878076
 20
-5.5967960416029774
 30
0.0
 11
-30.344599545843099
 21
-5.5967960416029774
 31
0.0
 12
-30.347060290668569
 22
-5.602736805134148
 32
0.0
 13
-30.347060290668569
 23
-5.602736805134148
 33
0.0
210
0.0
220
0.0
230
-1.0
  0
SOLID
  5
2497
  8
0
  6
CONTINUOUS
 10
30.330257273955301
 20
-5.602736805134148
 30
0.0
 11
30.33271801878076
 21
-5.6086775686653212
 31
0.0
 12
30.344599545843099
 22
-5.6086775686653212
 32
0.0
 13
30.344599545843099
 23
-5.6086775686653212
 33
0.0
  0
SOLID
  5
2498
  8
0
  6
CONTINUOUS
 10
-30.330257273955301
 20
-5.602736805134148
 30
0.0
 11
-30.347060290668569
 21
-5.602736805134148
 31
0.0
 12
-30.344599545843099
 22
-5.6086775686653212
 32
0.0
 13
-30.344599545843099
 23
-5.6086775686653212
 33
0.0
210
0.0
220
0.0
230
-1.0
  0
SOLID
  5
2499
  8
0
  6
CONTINUOUS
 10
-30.33271801878076
 20
-5.6086775686653212
 30
0.0
 11
-30.344599545843099
 21
-5.6086775686653212
 31
0.0
 12
-30.338658782311931
 22
-5.6111383134907831
 32
0.0
 13
-30.338658782311931
 23
-5.6111383134907831
 33
0.0
210
0.0
220
0.0
230
-1.0
  0
LINE
  5
249A
  8
0
  6
CONTINUOUS
 10
30.338658782311931
 20
-5.5943352967775137
 30
0.0
 11
30.33271801878076
 21
-5.5967960416029774
 31
0.0
  0
LINE
  5
249B
  8
0
  6
CONTINUOUS
 10
30.344599545843099
 20
-5.5967960416029774
 30
0.0
 11
30.338658782311931
 21
-5.5943352967775137
 31
0.0
  0
LINE
  5
249C
  8
0
  6
CONTINUOUS
 10
30.33271801878076
 20
-5.5967960416029774
 30
0.0
 11
30.330257273955301
 21
-5.602736805134148
 31
0.0
  0
LINE
  5
249D
  8
0
  6
CONTINUOUS
 10
30.344599545843099
 20
-5.5967960416029774
 30
0.0
 11
30.347060290668569
 21
-5.602736805134148
 31
0.0
  0
LINE
  5
249E
  8
0
  6
CONTINUOUS
 10
30.330257273955301
 20
-5.602736805134148
 30
0.0
 11
30.33271801878076
 21
-5.6086775686653212
 31
0.0
  0
LINE
  5
249F
  8
0
  6
CONTINUOUS
 10
30.347060290668569
 20
-5.602736805134148
 30
0.0
 11
30.344599545843099
 21
-5.6086775686653212
 31
0.0
  0
LINE
  5
24A0
  8
0
  6
CONTINUOUS
 10
30.344599545843099
 20
-5.6086775686653212
 30
0.0
 11
30.338658782311931
 21
-5.6111383134907831
 31
0.0
  0
LINE
  5
24A1
  8
0
  6
CONTINUOUS
 10
30.338658782311931
 20
-5.6111383134907831
 30
0.0
 11
30.33271801878076
 21
-5.6086775686653212
 31
0.0
  0
ENDBLK
  5
24A3
  8
0
  0
BLOCK
  8
0
  2
*U48
 70
     1
 10
0.0
 20
0.0
 30
0.0
  3
*U48
  1

  0
SOLID
  5
24A5
  8
0
  6
CONTINUOUS
 10
32.650834352407493
 20
-5.7573424457471027
 30
0.0
 11
32.644893588876322
 21
-5.7598031905725673
 31
0.0
 12
32.656775115938657
 22
-5.7598031905725673
 32
0.0
 13
32.656775115938657
 23
-5.7598031905725673
 33
0.0
  0
SOLID
  5
24A6
  8
0
  6
CONTINUOUS
 10
32.644893588876322
 20
-5.7598031905725673
 30
0.0
 11
32.642432844050852
 21
-5.765743954103737
 31
0.0
 12
32.65923586076412
 22
-5.765743954103737
 32
0.0
 13
32.65923586076412
 23
-5.765743954103737
 33
0.0
  0
SOLID
  5
24A7
  8
0
  6
CONTINUOUS
 10
-32.644893588876322
 20
-5.7598031905725673
 30
0.0
 11
-32.656775115938657
 21
-5.7598031905725673
 31
0.0
 12
-32.65923586076412
 22
-5.765743954103737
 32
0.0
 13
-32.65923586076412
 23
-5.765743954103737
 33
0.0
210
0.0
220
0.0
230
-1.0
  0
SOLID
  5
24A8
  8
0
  6
CONTINUOUS
 10
32.642432844050852
 20
-5.765743954103737
 30
0.0
 11
32.644893588876322
 21
-5.7716847176349102
 31
0.0
 12
32.656775115938657
 22
-5.7716847176349102
 32
0.0
 13
32.656775115938657
 23
-5.7716847176349102
 33
0.0
  0
SOLID
  5
24A9
  8
0
  6
CONTINUOUS
 10
-32.642432844050852
 20
-5.765743954103737
 30
0.0
 11
-32.65923586076412
 21
-5.765743954103737
 31
0.0
 12
-32.656775115938657
 22
-5.7716847176349102
 32
0.0
 13
-32.656775115938657
 23
-5.7716847176349102
 33
0.0
210
0.0
220
0.0
230
-1.0
  0
SOLID
  5
24AA
  8
0
  6
CONTINUOUS
 10
-32.644893588876322
 20
-5.7716847176349102
 30
0.0
 11
-32.656775115938657
 21
-5.7716847176349102
 31
0.0
 12
-32.650834352407493
 22
-5.7741454624603721
 32
0.0
 13
-32.650834352407493
 23
-5.7741454624603721
 33
0.0
210
0.0
220
0.0
230
-1.0
  0
LINE
  5
24AB
  8
0
  6
CONTINUOUS
 10
32.650834352407493
 20
-5.7573424457471027
 30
0.0
 11
32.644893588876322
 21
-5.7598031905725673
 31
0.0
  0
LINE
  5
24AC
  8
0
  6
CONTINUOUS
 10
32.656775115938657
 20
-5.7598031905725673
 30
0.0
 11
32.650834352407493
 21
-5.7573424457471027
 31
0.0
  0
LINE
  5
24AD
  8
0
  6
CONTINUOUS
 10
32.644893588876322
 20
-5.7598031905725673
 30
0.0
 11
32.642432844050852
 21
-5.765743954103737
 31
0.0
  0
LINE
  5
24AE
  8
0
  6
CONTINUOUS
 10
32.656775115938657
 20
-5.7598031905725673
 30
0.0
 11
32.65923586076412
 21
-5.765743954103737
 31
0.0
  0
LINE
  5
24AF
  8
0
  6
CONTINUOUS
 10
32.642432844050852
 20
-5.765743954103737
 30
0.0
 11
32.644893588876322
 21
-5.7716847176349102
 31
0.0
  0
LINE
  5
24B0
  8
0
  6
CONTINUOUS
 10
32.65923586076412
 20
-5.765743954103737
 30
0.0
 11
32.656775115938657
 21
-5.7716847176349102
 31
0.0
  0
LINE
  5
24B1
  8
0
  6
CONTINUOUS
 10
32.656775115938657
 20
-5.7716847176349102
 30
0.0
 11
32.650834352407493
 21
-5.7741454624603721
 31
0.0
  0
LINE
  5
24B2
  8
0
  6
CONTINUOUS
 10
32.650834352407493
 20
-5.7741454624603721
 30
0.0
 11
32.644893588876322
 21
-5.7716847176349102
 31
0.0
  0
ENDBLK
  5
24B4
  8
0
  0
BLOCK
  8
0
  2
*U49
 70
     1
 10
0.0
 20
0.0
 30
0.0
  3
*U49
  1

  0
TEXT
  5
24B6
  8
0
 62
     5
 10
30.011135681014839
 20
-4.564674928561776
 30
0.0
 40
0.135
  1
LEAVE UNCOVERED
  0
TEXT
  5
24B7
  8
0
 62
     5
 10
30.776135681014839
 20
-4.7896749285617748
 30
0.0
 40
0.135
  1
FOR ACCESS
  0
ENDBLK
  5
24B9
  8
0
  0
BLOCK
  8
0
  2
*U50
 70
     1
 10
0.0
 20
0.0
 30
0.0
  3
*U50
  1

  0
TEXT
  5
24BB
  8
0
 62
     5
 10
32.055816502535833
 20
-4.6012617255766592
 30
0.0
 40
0.18
  1
 
  0
ENDBLK
  5
24BD
  8
0
  0
BLOCK
  8
0
  2
*U51
 70
     1
 10
0.0
 20
0.0
 30
0.0
  3
*U51
  1

  0
TEXT
  5
24BF
  8
0
 62
     5
 10
6.4339236185490147
 20
-5.7891884048220881
 30
0.0
 40
0.135
  1
NOSE - LIGHT BLOCK
  0
TEXT
  5
24C0
  8
0
 62
     5
 10
6.7039236185490161
 20
-6.0141884048220877
 30
0.0
 40
0.135
  1
OR LAMINATE FROM
  0
TEXT
  5
24C1
  8
0
 62
     5
 10
7.0594236185490162
 20
-6.2819384048220881
 30
0.0
 40
0.135
  1
LIGHT 
  0
TEXT
  5
24C2
  8
0
 62
     5
 10
7.8401736185490138
 20
-6.1986884048220867
 30
0.0
 40
0.0945
  1
1
  0
LINE
  5
24C3
  8
0
 62
     5
 10
7.8244236185490141
 20
-6.2144384048220882
 30
0.0
 11
7.8874236185490139
 21
-6.2144384048220882
 31
0.0
  0
TEXT
  5
24C4
  8
0
 62
     5
 10
7.8244236185490141
 20
-6.3246884048220871
 30
0.0
 40
0.0945
  1
4
  0
TEXT
  5
24C5
  8
0
 62
     5
 10
7.9189236185490142
 20
-6.2819384048220881
 30
0.0
 40
0.135
  1
" SHEET
  0
ENDBLK
  5
24C7
  8
0
  0
BLOCK
  8
0
  2
*U52
 70
     1
 10
0.0
 20
0.0
 30
0.0
  3
*U52
  1

  0
TEXT
  5
24CE
  8
0
 62
     5
 10
36.850816793664023
 20
3.6739163208470309
 30
0.0
 40
0.135
  1
0.50 (MIN.)
  0
ENDBLK
  5
24D0
  8
0
  0
BLOCK
  8
0
  2
*U53
 70
     1
 10
0.0
 20
0.0
 30
0.0
  3
*U53
  1

  0
TEXT
  5
24D2
  8
0
 62
     5
 10
37.127841068666292
 20
13.464815459814041
 30
0.0
 40
0.135
  1
0.50 (MIN.)
  0
ENDBLK
  5
24D4
  8
0
  0
BLOCK
  8
0
  2
*U54
 70
     1
 10
0.0
 20
0.0
 30
0.0
  3
*U54
  1

  0
TEXT
  5
24D6
  8
0
 62
     5
 10
37.610976724487692
 20
14.127239554574221
 30
0.0
 40
0.135
  1
12.00
  0
ENDBLK
  5
24D8
  8
0
  0
BLOCK
  8
0
  2
*U55
 70
     1
 10
0.0
 20
0.0
 30
0.0
  3
*U55
  1

  0
TEXT
  5
24DA
  8
0
 62
     5
 10
33.443418911221592
 20
12.76477093764724
 30
0.0
 40
0.135
  1
2.22
  0
ENDBLK
  5
24DC
  8
0
  0
BLOCK
  8
0
  2
*U56
 70
     1
 10
0.0
 20
0.0
 30
0.0
  3
*U56
  1

  0
TEXT
  5
24DE
  8
0
 62
     5
 10
39.073664431640118
 20
14.622705946765979
 30
0.0
 40
0.135
  1
PROP BLANK
  0
TEXT
  5
24DF
  8
0
 62
     5
 10
39.073664431640118
 20
14.39770594676598
 30
0.0
 40
0.135
  1
MEDIUM 1" SHEET
  0
ENDBLK
  5
24E1
  8
0
  0
BLOCK
  8
0
  2
*U57
 70
     1
 10
0.0
 20
0.0
 30
0.0
  3
*U57
  1

  0
TEXT
  5
24E3
  8
0
 62
     5
 10
28.573898082095091
 20
13.47766956056736
 30
0.0
 40
0.135
  1
0.625
  0
ENDBLK
  5
24E5
  8
0
  0
BLOCK
  8
0
  2
*U58
 70
     1
 10
0.0
 20
0.0
 30
0.0
  3
*U58
  1

  0
TEXT
  5
24E7
  8
0
 62
     5
 10
30.238471445068921
 20
14.6355600475193
 30
0.0
 40
0.135
  1
PROP BLANK
  0
TEXT
  5
24E8
  8
0
 62
     5
 10
30.238471445068921
 20
14.367810047519299
 30
0.0
 40
0.135
  1
MEDIUM 1 
  0
TEXT
  5
24E9
  8
0
 62
     5
 10
31.379221445068922
 20
14.451060047519301
 30
0.0
 40
0.0945
  1
1
  0
LINE
  5
24EA
  8
0
 62
     5
 10
31.363471445068921
 20
14.4353100475193
 30
0.0
 11
31.42647144506892
 21
14.4353100475193
 31
0.0
  0
TEXT
  5
24EB
  8
0
 62
     5
 10
31.363471445068921
 20
14.325060047519299
 30
0.0
 40
0.0945
  1
4
  0
TEXT
  5
24EC
  8
0
 62
     5
 10
31.457971445068921
 20
14.367810047519299
 30
0.0
 40
0.135
  1
" SHEET
  0
ENDBLK
  5
24EE
  8
0
  0
BLOCK
  8
0
  2
*U59
 70
     1
 10
0.0
 20
0.0
 30
0.0
  3
*U59
  1

  0
TEXT
  5
24F0
  8
0
 62
     5
 10
28.775783737916491
 20
14.140093655327529
 30
0.0
 40
0.135
  1
13.00
  0
ENDBLK
  5
24F2
  8
0
  0
BLOCK
  8
0
  2
*U60
 70
     1
 10
0.0
 20
0.0
 30
0.0
  3
*U60
  1

  0
TEXT
  5
24F4
  8
0
 62
     5
 10
24.608225924650391
 20
12.777625038400551
 30
0.0
 40
0.135
  1
2.55
  0
ENDBLK
  5
24F6
  8
0
  0
BLOCK
  8
0
  2
*U61
 70
     1
 10
0.0
 20
0.0
 30
0.0
  3
*U61
  1

  0
TEXT
  5
24F8
  8
0
 62
     5
 10
39.073664431640118
 20
12.82321479118345
 30
0.0
 40
0.135
  1
PROP 12x17
  0
ENDBLK
  5
24FA
  8
0
  0
BLOCK
  8
0
  2
*U62
 70
     1
 10
0.0
 20
0.0
 30
0.0
  3
*U62
  1

  0
TEXT
  5
24FC
  8
0
 62
     5
 10
30.238471445068921
 20
12.836068891936771
 30
0.0
 40
0.135
  1
PROP 13x20
  0
ENDBLK
  5
24FE
  8
0
  0
ENDSEC
  0
SECTION
  2
ENTITIES
  0
POLYLINE
  5
82E
  8
0
 66
     1
 10
0.0
 20
0.0
 30
0.0
 70
     1
  0
VERTEX
  5
25E4
  8
0
 10
42.624489599052687
 20
-8.3439226853574482
 30
0.0
  0
VERTEX
  5
25E5
  8
0
 10
37.322680468218543
 20
-8.3439226853574482
 30
0.0
  0
VERTEX
  5
25E6
  8
0
 10
37.322680468218543
 20
-7.0752659980378407
 30
0.0
  0
VERTEX
  5
25E7
  8
0
 10
42.624489599052687
 20
-7.0752659980378407
 30
0.0
  0
SEQEND
  5
25E8
  8
0
  0
TEXT
  5
82F
  8
0
 10
38.33727097086863
 20
-7.5266618675716019
 30
0.0
 40
0.2
  1
SENATOR
  0
TEXT
  5
830
  8
0
 10
40.15078921760319
 20
-8.2458638171048122
 30
0.0
 40
0.15
  1
J.BUSKELL Sept '04
  0
LINE
  5
B07
  8
0
 10
4.0162513079202
 20
11.57630547963557
 30
0.0
 11
42.624489599052687
 21
11.57630547963557
 31
0.0
  0
LINE
  5
B08
  8
0
 10
42.624489599052687
 20
11.57630547963557
 30
0.0
 11
42.624489599052687
 21
-7.1550378054819452
 31
0.0
  0
LINE
  5
B09
  8
0
 10
41.896074252880553
 20
-8.3439226853574482
 30
0.0
 11
4.0162513079202
 21
-8.3439226853574482
 31
0.0
  0
LINE
  5
B0A
  8
0
 10
4.0162513079202
 20
-8.3439226853574482
 30
0.0
 11
4.0162513079202
 21
11.57630547963557
 31
0.0
  0
LINE
  5
D57
  8
0
 10
14.601686348838671
 20
10.46316741732112
 30
0.0
 11
30.351686348838669
 21
10.46316741732112
 31
0.0
  0
LINE
  5
D5B
  8
0
 10
14.601686348838671
 20
5.7131674173211211
 30
0.0
 11
30.351686348838669
 21
5.7131674173211211
 31
0.0
  0
LINE
  5
D5D
  8
GCL
 10
22.476686348838669
 20
11.57630547963557
 30
0.0
 11
22.476686348838669
 21
0.5092986119250682
 31
0.0
  0
LINE
  5
D5E
  8
0
 10
30.351686348838669
 20
10.46316741732112
 30
0.0
 11
30.351686348838669
 21
5.7131674173211211
 31
0.0
  0
LINE
  5
D64
  8
0
 10
14.601686348838671
 20
6.0881674173211229
 30
0.0
 11
16.319686348838669
 21
6.0881674173211211
 31
0.0
  0
POLYLINE
  5
D65
  8
0
 66
     1
 10
0.0
 20
0.0
 30
0.0
  0
VERTEX
  5
25E9
  8
0
 10
37.976974779881793
 20
9.6501674173211232
 30
0.0
  0
VERTEX
  5
25EA
  8
0
 10
37.935347087244608
 20
9.4816237979012161
 30
0.0
  0
VERTEX
  5
25EB
  8
0
 10
37.864071882698433
 20
9.3003425889538267
 30
0.0
  0
VERTEX
  5
25EC
  8
0
 10
37.731326535540383
 20
9.0141233556927993
 30
0.0
  0
VERTEX
  5
25ED
  8
0
 10
37.503092867466897
 20
8.6593798341038788
 30
0.0
  0
SEQEND
  5
25EE
  8
0
  0
LINE
  5
D76
  8
0
 10
14.895533808272781
 20
10.28636741732112
 30
0.0
 11
16.319686348838669
 21
10.28636741732112
 31
0.0
  0
LINE
  5
D77
  8
0
 10
14.601686348838671
 20
10.37476741732112
 30
0.0
 11
30.351686348838669
 21
10.374767417321131
 31
0.0
  0
LINE
  5
D7C
  8
0
 10
32.11968634883867
 20
6.025167417321124
 30
0.0
 11
32.183686348838663
 21
6.025167417321124
 31
0.0
  0
LINE
  5
D7D
  8
0
 10
32.119686348838663
 20
10.37476741732112
 30
0.0
 11
32.119686348838663
 21
9.7131674173211202
 31
0.0
  0
LINE
  5
D7E
  8
0
 10
32.183686348838663
 20
10.37476741732112
 30
0.0
 11
32.183686348838648
 21
9.7131674173211202
 31
0.0
  0
LINE
  5
D7F
  8
0
 10
33.91968634883866
 20
10.37476741732112
 30
0.0
 11
33.91968634883866
 21
9.7131674173211238
 31
0.0
  0
LINE
  5
D80
  8
0
 10
33.983686348838653
 20
10.37476741732112
 30
0.0
 11
33.983686348838653
 21
9.7131674173211238
 31
0.0
  0
LINE
  5
D81
  8
0
 10
35.719686348838657
 20
10.37476741732112
 30
0.0
 11
35.719686348838657
 21
9.7131674173211202
 31
0.0
  0
LINE
  5
D82
  8
0
 10
35.783686348838657
 20
10.37476741732112
 30
0.0
 11
35.783686348838657
 21
9.7131674173211202
 31
0.0
  0
LINE
  5
D83
  8
0
 10
33.91968634883866
 20
6.025167417321124
 30
0.0
 11
33.983686348838653
 21
6.025167417321124
 31
0.0
  0
LINE
  5
D84
  8
0
 10
32.183686348838663
 20
6.0881674173211211
 30
0.0
 11
33.919686348838681
 21
6.0881674173211211
 31
0.0
  0
LINE
  5
D85
  8
0
 10
33.983686348838653
 20
6.0881674173211211
 30
0.0
 11
36.287293864685601
 21
6.0881674173211264
 31
0.0
  0
LINE
  5
D86
  8
0
 10
32.183686348838648
 20
10.28636741732112
 30
0.0
 11
33.91968634883866
 21
10.28636741732112
 31
0.0
  0
LINE
  5
D87
  8
0
 10
33.983686348838653
 20
10.28636741732112
 30
0.0
 11
35.719686348838671
 21
10.28636741732112
 31
0.0
  0
LINE
  5
D88
  8
0
 10
35.783686348838657
 20
10.28636741732112
 30
0.0
 11
38.123110916368617
 21
10.28636741732112
 31
0.0
  0
LINE
  5
D89
  8
0
 10
35.936185029259427
 20
6.4462553087014483
 30
0.0
 11
35.919469646820517
 21
6.4272740943579842
 31
0.0
  0
ARC
  5
D8A
  8
0
 10
35.168989789887149
 20
7.0881674173211229
 30
0.0
 40
1.0
 50
270.00000000000011
 51
303.41481295569071
  0
LINE
  5
D8B
  8
0
 10
35.936185029259427
 20
6.4462553087014447
 30
0.0
 11
35.936223271115189
 21
6.4462167966839772
 31
0.0
  0
ARC
  5
D8D
  8
0
 10
35.168989789887149
 20
7.0881674173211229
 30
0.0
 40
1.0
 50
307.92987503120628
 51
318.63196168890312
  0
LINE
  5
D8F
  8
0
 10
35.783686348838657
 20
10.09836741732112
 30
0.0
 11
37.112323947889152
 21
10.09836741732112
 31
0.0
  0
POLYLINE
  5
D90
  8
0
 66
     1
 10
0.0
 20
0.0
 30
0.0
  0
VERTEX
  5
25EF
  8
0
 10
36.962855686569242
 20
10.09836741732112
 30
0.0
  0
VERTEX
  5
25F0
  8
0
 10
37.104970530462431
 20
10.098817265351819
 30
0.0
  0
VERTEX
  5
25F1
  8
0
 10
37.274814729417869
 20
10.088426983664879
 30
0.0
  0
VERTEX
  5
25F2
  8
0
 10
37.51398336386297
 20
10.07110989719056
 30
0.0
  0
VERTEX
  5
25F3
  8
0
 10
37.659564180670031
 20
10.036475873253501
 30
0.0
  0
VERTEX
  5
25F4
  8
0
 10
37.76355070292523
 20
10.005305177204351
 30
0.0
  0
VERTEX
  5
25F5
  8
0
 10
37.874469432966741
 20
9.9498904408818376
 30
0.0
  0
VERTEX
  5
25F6
  8
0
 10
37.922996459221963
 20
9.9014026583583394
 30
0.0
  0
VERTEX
  5
25F7
  8
0
 10
37.96459101573231
 20
9.8355979383721408
 30
0.0
  0
VERTEX
  5
25F8
  8
0
 10
37.985388163008281
 20
9.731695419526126
 30
0.0
  0
VERTEX
  5
25F9
  8
0
 10
37.98384290286311
 20
9.7131674173211238
 30
0.0
  0
SEQEND
  5
25FA
  8
0
  0
LINE
  5
F92
  8
0
 10
14.601686348838671
 20
9.7131674173211238
 30
0.0
 11
30.351686348838669
 21
9.7131674173211238
 31
0.0
  0
LINE
  5
F93
  8
0
 10
14.601686348838671
 20
8.9131674173211231
 30
0.0
 11
30.351686348838669
 21
8.9131674173211231
 31
0.0
  0
LINE
  5
F94
  8
0
 10
14.601686348838671
 20
8.0131674173211227
 30
0.0
 11
30.351686348838669
 21
8.0131674173211227
 31
0.0
  0
LINE
  5
F95
  8
0
 10
14.601686348838671
 20
9.6501674173211232
 30
0.0
 11
30.351686348838669
 21
9.6501674173211232
 31
0.0
  0
LINE
  5
F96
  8
0
 10
14.601686348838671
 20
8.8501674173211224
 30
0.0
 11
30.351686348838669
 21
8.8501674173211224
 31
0.0
  0
LINE
  5
F97
  8
0
 10
14.601686348838671
 20
8.0761674173211233
 30
0.0
 11
30.351686348838669
 21
8.0761674173211233
 31
0.0
  0
LINE
  5
F98
  8
0
 10
32.183686348838648
 20
9.6501674173211232
 30
0.0
 11
32.183686348838648
 21
8.9131674173211231
 31
0.0
  0
LINE
  5
F99
  8
0
 10
32.119686348838663
 20
9.6501674173211232
 30
0.0
 11
32.119686348838663
 21
8.9131674173211231
 31
0.0
  0
LINE
  5
F9A
  8
0
 10
32.119686348838663
 20
8.8501674173211224
 30
0.0
 11
32.11968634883867
 21
8.0761674173211251
 31
0.0
  0
LINE
  5
F9B
  8
0
 10
32.183686348838648
 20
8.8501674173211224
 30
0.0
 11
32.183686348838663
 21
8.0761674173211251
 31
0.0
  0
LINE
  5
F9C
  8
0
 10
33.91968634883866
 20
8.8501674173211224
 30
0.0
 11
33.919686348838681
 21
8.0761674173211251
 31
0.0
  0
LINE
  5
F9D
  8
0
 10
33.983686348838653
 20
8.8501674173211224
 30
0.0
 11
33.983686348838653
 21
8.0761674173211251
 31
0.0
  0
LINE
  5
F9E
  8
0
 10
33.91968634883866
 20
9.6501674173211232
 30
0.0
 11
33.91968634883866
 21
8.9131674173211231
 31
0.0
  0
LINE
  5
F9F
  8
0
 10
33.983686348838653
 20
9.6501674173211232
 30
0.0
 11
33.983686348838653
 21
8.9131674173211231
 31
0.0
  0
LINE
  5
FA0
  8
0
 10
33.983686348838653
 20
8.0131674173211227
 30
0.0
 11
33.98368634883866
 21
6.025167417321124
 31
0.0
  0
LINE
  5
FA1
  8
0
 10
33.919686348838681
 20
8.0131674173211227
 30
0.0
 11
33.919686348838681
 21
6.025167417321124
 31
0.0
  0
LINE
  5
FA2
  8
0
 10
32.11968634883867
 20
8.0131674173211227
 30
0.0
 11
32.11968634883867
 21
6.025167417321124
 31
0.0
  0
LINE
  5
FA3
  8
0
 10
32.183686348838663
 20
8.0131674173211227
 30
0.0
 11
32.183686348838663
 21
6.025167417321124
 31
0.0
  0
LINE
  5
FA4
  8
0
 10
35.719686348838657
 20
9.6501674173211196
 30
0.0
 11
35.719686348838657
 21
8.9131674173211231
 31
0.0
  0
LINE
  5
FA5
  8
0
 10
35.783686348838657
 20
9.6501674173211196
 30
0.0
 11
35.783686348838657
 21
8.9131674173211231
 31
0.0
  0
LINE
  5
FA6
  8
0
 10
35.719686348838657
 20
8.8501674173211224
 30
0.0
 11
35.719686348838657
 21
8.0761674173211233
 31
0.0
  0
LINE
  5
FA7
  8
0
 10
35.783686348838657
 20
8.8501674173211224
 30
0.0
 11
35.783686348838671
 21
8.0761674173211233
 31
0.0
  0
LINE
  5
FA8
  8
0
 10
35.719686348838657
 20
8.0131674173211227
 30
0.0
 11
35.719686348838657
 21
6.0881674173211238
 31
0.0
  0
LINE
  5
FA9
  8
0
 10
35.783686348838671
 20
8.0131674173211227
 30
0.0
 11
35.783686348838657
 21
6.0881674173211238
 31
0.0
  0
LINE
  5
FAA
  8
0
 10
30.383686348838669
 20
10.37476741732112
 30
0.0
 11
30.383686348838658
 21
9.7131674173211238
 31
0.0
  0
LINE
  5
FAB
  8
0
 10
30.319686348838669
 20
10.37476741732112
 30
0.0
 11
30.319686348838669
 21
9.7131674173211238
 31
0.0
  0
LINE
  5
FAC
  8
0
 10
30.645533808272798
 20
10.28636741732112
 30
0.0
 11
32.119686348838663
 21
10.28636741732112
 31
0.0
  0
LINE
  5
FAD
  8
0
 10
30.383686348838658
 20
9.6501674173211232
 30
0.0
 11
30.383686348838658
 21
8.9131674173211231
 31
0.0
  0
LINE
  5
FAE
  8
0
 10
30.319686348838669
 20
9.6501674173211232
 30
0.0
 11
30.319686348838669
 21
8.9131674173211231
 31
0.0
  0
LINE
  5
FAF
  8
0
 10
30.383686348838658
 20
8.8501674173211224
 30
0.0
 11
30.383686348838669
 21
8.0761674173211233
 31
0.0
  0
LINE
  5
FB0
  8
0
 10
30.319686348838669
 20
8.8501674173211224
 30
0.0
 11
30.319686348838669
 21
8.0761674173211233
 31
0.0
  0
LINE
  5
FB1
  8
0
 10
30.383686348838669
 20
8.0131674173211227
 30
0.0
 11
30.383686348838669
 21
6.0881674173211211
 31
0.0
  0
LINE
  5
FB2
  8
0
 10
30.319686348838669
 20
8.0131674173211227
 30
0.0
 11
30.319686348838669
 21
6.0881674173211211
 31
0.0
  0
LINE
  5
FB6
  8
0
 10
28.633686348838658
 20
8.0131674173211227
 30
0.0
 11
28.633686348838669
 21
6.025167417321124
 31
0.0
  0
LINE
  5
FB7
  8
0
 10
28.56968634883868
 20
8.0131674173211227
 30
0.0
 11
28.56968634883868
 21
6.025167417321124
 31
0.0
  0
LINE
  5
FB8
  8
0
 10
28.56968634883868
 20
6.025167417321124
 30
0.0
 11
28.633686348838658
 21
6.025167417321124
 31
0.0
  0
LINE
  5
FB9
  8
0
 10
28.633686348838658
 20
8.8501674173211224
 30
0.0
 11
28.633686348838658
 21
8.0761674173211251
 31
0.0
  0
LINE
  5
FBA
  8
0
 10
28.569686348838669
 20
8.8501674173211224
 30
0.0
 11
28.56968634883868
 21
8.0761674173211251
 31
0.0
  0
LINE
  5
FBB
  8
0
 10
28.569686348838669
 20
10.37476741732112
 30
0.0
 11
28.569686348838669
 21
9.7131674173211202
 31
0.0
  0
LINE
  5
FBC
  8
0
 10
28.633686348838658
 20
10.37476741732112
 30
0.0
 11
28.633686348838658
 21
9.7131674173211202
 31
0.0
  0
LINE
  5
FBD
  8
0
 10
28.633686348838658
 20
9.6501674173211232
 30
0.0
 11
28.633686348838658
 21
8.9131674173211231
 31
0.0
  0
LINE
  5
FBE
  8
0
 10
28.569686348838669
 20
9.6501674173211232
 30
0.0
 11
28.569686348838669
 21
8.9131674173211231
 31
0.0
  0
LINE
  5
FBF
  8
0
 10
26.81968634883868
 20
8.0131674173211227
 30
0.0
 11
26.81968634883868
 21
6.025167417321124
 31
0.0
  0
LINE
  5
FC0
  8
0
 10
26.883686348838658
 20
8.0131674173211227
 30
0.0
 11
26.883686348838669
 21
6.025167417321124
 31
0.0
  0
LINE
  5
FC1
  8
0
 10
26.81968634883868
 20
6.025167417321124
 30
0.0
 11
26.883686348838658
 21
6.025167417321124
 31
0.0
  0
LINE
  5
FC2
  8
0
 10
26.81968634883868
 20
8.8501674173211224
 30
0.0
 11
26.81968634883868
 21
8.0761674173211251
 31
0.0
  0
LINE
  5
FC3
  8
0
 10
26.883686348838658
 20
8.8501674173211224
 30
0.0
 11
26.883686348838658
 21
8.0761674173211251
 31
0.0
  0
LINE
  5
FC4
  8
0
 10
26.883686348838658
 20
10.37476741732112
 30
0.0
 11
26.883686348838658
 21
9.7131674173211202
 31
0.0
  0
LINE
  5
FC5
  8
0
 10
26.81968634883868
 20
10.37476741732112
 30
0.0
 11
26.81968634883868
 21
9.7131674173211202
 31
0.0
  0
LINE
  5
FC6
  8
0
 10
26.81968634883868
 20
9.6501674173211232
 30
0.0
 11
26.81968634883868
 21
8.9131674173211231
 31
0.0
  0
LINE
  5
FC7
  8
0
 10
26.883686348838658
 20
9.6501674173211232
 30
0.0
 11
26.883686348838658
 21
8.9131674173211231
 31
0.0
  0
LINE
  5
FC8
  8
0
 10
25.06968634883868
 20
8.0131674173211227
 30
0.0
 11
25.06968634883868
 21
6.025167417321124
 31
0.0
  0
LINE
  5
FC9
  8
0
 10
25.133686348838658
 20
8.0131674173211227
 30
0.0
 11
25.133686348838669
 21
6.025167417321124
 31
0.0
  0
LINE
  5
FCA
  8
0
 10
25.06968634883868
 20
6.025167417321124
 30
0.0
 11
25.133686348838658
 21
6.025167417321124
 31
0.0
  0
LINE
  5
FCB
  8
0
 10
25.069686348838669
 20
8.8501674173211224
 30
0.0
 11
25.06968634883868
 21
8.0761674173211251
 31
0.0
  0
LINE
  5
FCC
  8
0
 10
25.133686348838658
 20
8.8501674173211224
 30
0.0
 11
25.133686348838658
 21
8.0761674173211251
 31
0.0
  0
LINE
  5
FCD
  8
0
 10
25.133686348838658
 20
10.37476741732112
 30
0.0
 11
25.133686348838658
 21
9.7131674173211202
 31
0.0
  0
LINE
  5
FCE
  8
0
 10
25.069686348838669
 20
10.37476741732112
 30
0.0
 11
25.069686348838669
 21
9.7131674173211202
 31
0.0
  0
LINE
  5
FCF
  8
0
 10
25.069686348838669
 20
9.6501674173211232
 30
0.0
 11
25.069686348838669
 21
8.9131674173211231
 31
0.0
  0
LINE
  5
FD0
  8
0
 10
25.133686348838658
 20
9.6501674173211232
 30
0.0
 11
25.133686348838658
 21
8.9131674173211231
 31
0.0
  0
LINE
  5
FD1
  8
0
 10
23.319686348838669
 20
8.0131674173211227
 30
0.0
 11
23.319686348838669
 21
6.025167417321124
 31
0.0
  0
LINE
  5
FD2
  8
0
 10
23.383686348838658
 20
8.0131674173211227
 30
0.0
 11
23.383686348838669
 21
6.025167417321124
 31
0.0
  0
LINE
  5
FD3
  8
0
 10
23.319686348838669
 20
6.025167417321124
 30
0.0
 11
23.383686348838658
 21
6.025167417321124
 31
0.0
  0
LINE
  5
FD4
  8
0
 10
23.319686348838669
 20
8.8501674173211224
 30
0.0
 11
23.319686348838669
 21
8.0761674173211251
 31
0.0
  0
LINE
  5
FD5
  8
0
 10
23.383686348838651
 20
8.8501674173211224
 30
0.0
 11
23.383686348838658
 21
8.0761674173211251
 31
0.0
  0
LINE
  5
FD6
  8
0
 10
23.383686348838658
 20
10.37476741732112
 30
0.0
 11
23.383686348838651
 21
9.7131674173211202
 31
0.0
  0
LINE
  5
FD7
  8
0
 10
23.319686348838669
 20
10.37476741732112
 30
0.0
 11
23.319686348838669
 21
9.7131674173211202
 31
0.0
  0
LINE
  5
FD8
  8
0
 10
23.319686348838669
 20
9.6501674173211232
 30
0.0
 11
23.319686348838669
 21
8.9131674173211231
 31
0.0
  0
LINE
  5
FD9
  8
0
 10
23.383686348838651
 20
9.6501674173211232
 30
0.0
 11
23.383686348838651
 21
8.9131674173211231
 31
0.0
  0
LINE
  5
FDA
  8
0
 10
21.56968634883868
 20
8.0131674173211227
 30
0.0
 11
21.569686348838669
 21
6.025167417321124
 31
0.0
  0
LINE
  5
FDB
  8
0
 10
21.633686348838658
 20
8.0131674173211227
 30
0.0
 11
21.633686348838658
 21
6.025167417321124
 31
0.0
  0
LINE
  5
FDC
  8
0
 10
21.633686348838658
 20
6.025167417321124
 30
0.0
 11
21.56968634883868
 21
6.025167417321124
 31
0.0
  0
LINE
  5
FDD
  8
0
 10
21.56968634883869
 20
8.8501674173211224
 30
0.0
 11
21.56968634883868
 21
8.0761674173211251
 31
0.0
  0
LINE
  5
FDE
  8
0
 10
21.633686348838669
 20
8.8501674173211224
 30
0.0
 11
21.633686348838658
 21
8.0761674173211251
 31
0.0
  0
LINE
  5
FDF
  8
0
 10
19.819686348838669
 20
8.0131674173211227
 30
0.0
 11
19.819686348838669
 21
6.025167417321124
 31
0.0
  0
LINE
  5
FE0
  8
0
 10
19.883686348838651
 20
8.0131674173211227
 30
0.0
 11
19.883686348838651
 21
6.025167417321124
 31
0.0
  0
LINE
  5
FE1
  8
0
 10
18.069686348838669
 20
8.0131674173211227
 30
0.0
 11
18.069686348838669
 21
6.025167417321124
 31
0.0
  0
LINE
  5
FE2
  8
0
 10
18.133686348838651
 20
8.0131674173211227
 30
0.0
 11
18.133686348838651
 21
6.025167417321124
 31
0.0
  0
LINE
  5
FE3
  8
0
 10
19.883686348838651
 20
6.025167417321124
 30
0.0
 11
19.819686348838669
 21
6.025167417321124
 31
0.0
  0
LINE
  5
FE4
  8
0
 10
18.133686348838651
 20
6.025167417321124
 30
0.0
 11
18.069686348838669
 21
6.025167417321124
 31
0.0
  0
LINE
  5
FE5
  8
0
 10
19.81968634883868
 20
8.8501674173211224
 30
0.0
 11
19.819686348838669
 21
8.0761674173211251
 31
0.0
  0
LINE
  5
FE6
  8
0
 10
19.883686348838669
 20
8.8501674173211224
 30
0.0
 11
19.883686348838651
 21
8.0761674173211251
 31
0.0
  0
LINE
  5
FE7
  8
0
 10
18.06968634883868
 20
8.8501674173211224
 30
0.0
 11
18.069686348838669
 21
8.0761674173211251
 31
0.0
  0
LINE
  5
FE8
  8
0
 10
18.133686348838669
 20
8.8501674173211224
 30
0.0
 11
18.133686348838651
 21
8.0761674173211251
 31
0.0
  0
LINE
  5
FE9
  8
0
 10
16.383686348838658
 20
8.0131674173211227
 30
0.0
 11
16.383686348838658
 21
6.025167417321124
 31
0.0
  0
LINE
  5
FEA
  8
0
 10
16.319686348838669
 20
8.0131674173211227
 30
0.0
 11
16.319686348838669
 21
6.025167417321124
 31
0.0
  0
LINE
  5
FEB
  8
0
 10
16.383686348838658
 20
6.025167417321124
 30
0.0
 11
16.319686348838669
 21
6.025167417321124
 31
0.0
  0
LINE
  5
FEC
  8
0
 10
16.383686348838669
 20
8.8501674173211224
 30
0.0
 11
16.383686348838658
 21
8.0761674173211251
 31
0.0
  0
LINE
  5
FED
  8
0
 10
16.31968634883868
 20
8.8501674173211224
 30
0.0
 11
16.319686348838669
 21
8.0761674173211251
 31
0.0
  0
LINE
  5
FEE
  8
0
 10
21.633686348838669
 20
10.37476741732112
 30
0.0
 11
21.633686348838669
 21
9.7131674173211202
 31
0.0
  0
LINE
  5
FEF
  8
0
 10
21.56968634883868
 20
10.37476741732112
 30
0.0
 11
21.56968634883869
 21
9.7131674173211202
 31
0.0
  0
LINE
  5
FF0
  8
0
 10
21.56968634883869
 20
9.6501674173211232
 30
0.0
 11
21.56968634883869
 21
8.9131674173211231
 31
0.0
  0
LINE
  5
FF1
  8
0
 10
21.633686348838669
 20
9.6501674173211232
 30
0.0
 11
21.633686348838669
 21
8.9131674173211231
 31
0.0
  0
LINE
  5
FF2
  8
0
 10
19.883686348838669
 20
10.37476741732112
 30
0.0
 11
19.883686348838669
 21
9.7131674173211202
 31
0.0
  0
LINE
  5
FF3
  8
0
 10
19.819686348838669
 20
10.37476741732112
 30
0.0
 11
19.81968634883868
 21
9.7131674173211202
 31
0.0
  0
LINE
  5
FF4
  8
0
 10
18.133686348838669
 20
10.37476741732112
 30
0.0
 11
18.133686348838669
 21
9.7131674173211202
 31
0.0
  0
LINE
  5
FF5
  8
0
 10
18.069686348838669
 20
10.37476741732112
 30
0.0
 11
18.06968634883868
 21
9.7131674173211202
 31
0.0
  0
LINE
  5
FF6
  8
0
 10
19.81968634883868
 20
9.6501674173211232
 30
0.0
 11
19.81968634883868
 21
8.9131674173211231
 31
0.0
  0
LINE
  5
FF7
  8
0
 10
19.883686348838669
 20
9.6501674173211232
 30
0.0
 11
19.883686348838669
 21
8.9131674173211231
 31
0.0
  0
LINE
  5
FF8
  8
0
 10
18.06968634883868
 20
9.6501674173211232
 30
0.0
 11
18.06968634883868
 21
8.9131674173211231
 31
0.0
  0
LINE
  5
FF9
  8
0
 10
18.133686348838669
 20
9.6501674173211232
 30
0.0
 11
18.133686348838669
 21
8.9131674173211231
 31
0.0
  0
LINE
  5
FFA
  8
0
 10
16.319686348838669
 20
10.37476741732112
 30
0.0
 11
16.31968634883868
 21
9.7131674173211202
 31
0.0
  0
LINE
  5
FFB
  8
0
 10
16.383686348838669
 20
10.37476741732112
 30
0.0
 11
16.383686348838669
 21
9.7131674173211202
 31
0.0
  0
LINE
  5
FFC
  8
0
 10
16.383686348838669
 20
9.6501674173211232
 30
0.0
 11
16.383686348838669
 21
8.9131674173211231
 31
0.0
  0
LINE
  5
FFD
  8
0
 10
16.31968634883868
 20
9.6501674173211232
 30
0.0
 11
16.31968634883868
 21
8.9131674173211231
 31
0.0
  0
LINE
  5
FFE
  8
0
 10
26.883686348838658
 20
10.28636741732112
 30
0.0
 11
28.569686348838658
 21
10.28636741732112
 31
0.0
  0
LINE
  5
FFF
  8
0
 10
28.633686348838658
 20
10.28636741732112
 30
0.0
 11
30.05783888940455
 21
10.28636741732112
 31
0.0
  0
LINE
  5
1000
  8
0
 10
23.383686348838658
 20
10.28636741732112
 30
0.0
 11
25.069686348838669
 21
10.28636741732112
 31
0.0
  0
LINE
  5
1001
  8
0
 10
25.133686348838669
 20
10.28636741732112
 30
0.0
 11
26.81968634883868
 21
10.28636741732112
 31
0.0
  0
LINE
  5
1002
  8
0
 10
19.883686348838669
 20
10.28636741732112
 30
0.0
 11
21.56968634883868
 21
10.28636741732112
 31
0.0
  0
LINE
  5
1003
  8
0
 10
21.633686348838669
 20
10.28636741732112
 30
0.0
 11
23.319686348838669
 21
10.28636741732112
 31
0.0
  0
LINE
  5
1004
  8
0
 10
16.383686348838669
 20
10.28636741732112
 30
0.0
 11
18.069686348838669
 21
10.28636741732112
 31
0.0
  0
LINE
  5
1005
  8
0
 10
18.133686348838669
 20
10.28636741732112
 30
0.0
 11
19.819686348838669
 21
10.28636741732112
 31
0.0
  0
LINE
  5
100F
  8
0
 10
26.883686348838669
 20
6.0881674173211211
 30
0.0
 11
28.56968634883868
 21
6.0881674173211211
 31
0.0
  0
LINE
  5
1010
  8
0
 10
28.633686348838669
 20
6.0881674173211211
 30
0.0
 11
30.351686348838669
 21
6.0881674173211211
 31
0.0
  0
LINE
  5
1011
  8
0
 10
23.383686348838669
 20
6.0881674173211211
 30
0.0
 11
25.06968634883868
 21
6.0881674173211211
 31
0.0
  0
LINE
  5
1012
  8
0
 10
25.133686348838669
 20
6.0881674173211211
 30
0.0
 11
26.81968634883868
 21
6.0881674173211211
 31
0.0
  0
LINE
  5
1013
  8
0
 10
19.883686348838651
 20
6.0881674173211211
 30
0.0
 11
21.569686348838669
 21
6.0881674173211211
 31
0.0
  0
LINE
  5
1014
  8
0
 10
21.633686348838658
 20
6.0881674173211211
 30
0.0
 11
23.319686348838669
 21
6.0881674173211211
 31
0.0
  0
LINE
  5
1015
  8
0
 10
16.383686348838658
 20
6.0881674173211211
 30
0.0
 11
18.069686348838669
 21
6.0881674173211211
 31
0.0
  0
LINE
  5
1016
  8
0
 10
18.133686348838651
 20
6.0881674173211211
 30
0.0
 11
19.819686348838669
 21
6.0881674173211211
 31
0.0
  0
LINE
  5
1017
  8
0
 10
30.351686348838669
 20
5.7131674173211211
 30
0.0
 11
35.476686348838683
 21
5.7131674173211211
 31
0.0
  0
LINE
  5
1018
  8
0
 10
30.351686348838669
 20
6.0881674173211202
 30
0.0
 11
32.11968634883867
 21
6.0881674173211211
 31
0.0
  0
LINE
  5
1019
  8
0
 10
30.351686348838669
 20
8.0131674173211227
 30
0.0
 11
35.783686348838671
 21
8.0131674173211263
 31
0.0
  0
LINE
  5
101A
  8
0
 10
30.351686348838669
 20
8.0761674173211233
 30
0.0
 11
35.783686348838671
 21
8.0761674173211233
 31
0.0
  0
LINE
  5
101B
  8
0
 10
30.351686348838669
 20
8.8501674173211224
 30
0.0
 11
35.783686348838671
 21
8.8501674173211224
 31
0.0
  0
LINE
  5
101C
  8
0
 10
30.351686348838669
 20
8.9131674173211231
 30
0.0
 11
35.783686348838671
 21
8.9131674173211231
 31
0.0
  0
LINE
  5
101D
  8
0
 10
30.351686348838669
 20
9.6501674173211232
 30
0.0
 11
38.476190090088757
 21
9.6501674173211232
 31
0.0
  0
LINE
  5
101E
  8
0
 10
30.351686348838669
 20
9.7131674173211238
 30
0.0
 11
38.474139114311768
 21
9.7131674173211238
 31
0.0
  0
LINE
  5
101F
  8
0
 10
30.351686348838669
 20
10.37476741732112
 30
0.0
 11
37.917268964246389
 21
10.374767417321131
 31
0.0
  0
LINE
  5
1020
  8
0
 10
30.351686348838669
 20
10.46316741732112
 30
0.0
 11
37.188206699337492
 21
10.46316741732112
 31
0.0
  0
LINE
  5
1021
  8
0
 10
14.60168634883866
 20
10.46316741732112
 30
0.0
 11
7.765165998339838
 21
10.46316741732112
 31
0.0
  0
LINE
  5
1022
  8
0
 10
14.601686348838671
 20
10.37476741732112
 30
0.0
 11
7.0361037334309469
 21
10.374767417321131
 31
0.0
  0
LINE
  5
1023
  8
0
 10
14.60168634883866
 20
9.7131674173211238
 30
0.0
 11
6.4792335833655539
 21
9.7131674173211238
 31
0.0
  0
LINE
  5
1024
  8
0
 10
14.601686348838671
 20
9.6501674173211232
 30
0.0
 11
6.4771826075885741
 21
9.6501674173211232
 31
0.0
  0
LINE
  5
1025
  8
0
 10
14.60168634883866
 20
8.9131674173211231
 30
0.0
 11
9.1650495720982246
 21
8.9131674173211231
 31
0.0
  0
LINE
  5
1026
  8
0
 10
14.60168634883866
 20
8.8501674173211224
 30
0.0
 11
9.1696863488386722
 21
8.8501674173211224
 31
0.0
  0
LINE
  5
1027
  8
0
 10
14.60168634883866
 20
8.0761674173211233
 30
0.0
 11
9.160021573115241
 21
8.0761674173211233
 31
0.0
  0
LINE
  5
1028
  8
0
 10
14.60168634883866
 20
8.0131674173211227
 30
0.0
 11
9.1696863488386757
 21
8.0131674173211263
 31
0.0
  0
LINE
  5
1029
  8
0
 10
14.601686348838671
 20
5.7131674173211211
 30
0.0
 11
9.4766863488386672
 21
5.7131674173211211
 31
0.0
  0
LINE
  5
102A
  8
0
 10
10.96968634883868
 20
6.0881674173211211
 30
0.0
 11
8.6660788329917366
 21
6.0881674173211264
 31
0.0
  0
LINE
  5
102B
  8
0
 10
10.96968634883868
 20
10.28636741732112
 30
0.0
 11
9.2336863488386633
 21
10.28636741732112
 31
0.0
  0
LINE
  5
102C
  8
0
 10
14.601686348838671
 20
10.46316741732112
 30
0.0
 11
14.601686348838671
 21
5.7131674173211211
 31
0.0
  0
LINE
  5
102D
  8
0
 10
14.60168634883866
 20
6.0881674173211202
 30
0.0
 11
12.83368634883867
 21
6.0881674173211211
 31
0.0
  0
LINE
  5
102E
  8
0
 10
14.63368634883866
 20
8.0131674173211227
 30
0.0
 11
14.633686348838671
 21
6.0881674173211211
 31
0.0
  0
LINE
  5
102F
  8
0
 10
14.569686348838671
 20
8.0131674173211227
 30
0.0
 11
14.569686348838671
 21
6.0881674173211211
 31
0.0
  0
LINE
  5
1030
  8
0
 10
14.633686348838671
 20
8.8501674173211224
 30
0.0
 11
14.63368634883866
 21
8.0761674173211233
 31
0.0
  0
LINE
  5
1031
  8
0
 10
14.569686348838671
 20
8.8501674173211224
 30
0.0
 11
14.569686348838671
 21
8.0761674173211233
 31
0.0
  0
LINE
  5
1032
  8
0
 10
12.769686348838681
 20
8.0131674173211227
 30
0.0
 11
12.76968634883867
 21
6.025167417321124
 31
0.0
  0
LINE
  5
1033
  8
0
 10
12.83368634883867
 20
8.0131674173211227
 30
0.0
 11
12.83368634883867
 21
6.025167417321124
 31
0.0
  0
LINE
  5
1034
  8
0
 10
11.033686348838661
 20
8.0131674173211227
 30
0.0
 11
11.033686348838661
 21
6.025167417321124
 31
0.0
  0
LINE
  5
1035
  8
0
 10
10.969686348838691
 20
8.0131674173211227
 30
0.0
 11
10.96968634883868
 21
6.025167417321124
 31
0.0
  0
LINE
  5
1036
  8
0
 10
12.76968634883867
 20
6.0881674173211211
 30
0.0
 11
11.033686348838661
 21
6.0881674173211211
 31
0.0
  0
LINE
  5
1037
  8
0
 10
12.83368634883867
 20
6.025167417321124
 30
0.0
 11
12.769686348838681
 21
6.025167417321124
 31
0.0
  0
LINE
  5
1038
  8
0
 10
11.03368634883868
 20
6.025167417321124
 30
0.0
 11
10.96968634883868
 21
6.025167417321124
 31
0.0
  0
LINE
  5
1039
  8
0
 10
12.76968634883869
 20
8.8501674173211224
 30
0.0
 11
12.769686348838681
 21
8.0761674173211251
 31
0.0
  0
LINE
  5
103A
  8
0
 10
12.83368634883867
 20
8.8501674173211224
 30
0.0
 11
12.83368634883867
 21
8.0761674173211251
 31
0.0
  0
LINE
  5
103B
  8
0
 10
11.03368634883868
 20
8.8501674173211224
 30
0.0
 11
11.033686348838661
 21
8.0761674173211251
 31
0.0
  0
LINE
  5
103C
  8
0
 10
10.969686348838691
 20
8.8501674173211224
 30
0.0
 11
10.969686348838691
 21
8.0761674173211251
 31
0.0
  0
LINE
  5
103D
  8
0
 10
14.307838889404531
 20
10.28636741732112
 30
0.0
 11
12.83368634883867
 21
10.28636741732112
 31
0.0
  0
LINE
  5
103E
  8
0
 10
14.63368634883866
 20
10.37476741732112
 30
0.0
 11
14.633686348838671
 21
9.7131674173211238
 31
0.0
  0
LINE
  5
103F
  8
0
 10
14.56968634883866
 20
10.37476741732112
 30
0.0
 11
14.569686348838671
 21
9.7131674173211238
 31
0.0
  0
LINE
  5
1040
  8
0
 10
14.633686348838671
 20
9.6501674173211232
 30
0.0
 11
14.633686348838671
 21
8.9131674173211231
 31
0.0
  0
LINE
  5
1041
  8
0
 10
14.569686348838671
 20
9.6501674173211232
 30
0.0
 11
14.569686348838671
 21
8.9131674173211231
 31
0.0
  0
LINE
  5
1042
  8
0
 10
10.96968634883868
 20
10.37476741732112
 30
0.0
 11
10.96968634883868
 21
9.7131674173211238
 31
0.0
  0
LINE
  5
1043
  8
0
 10
11.03368634883868
 20
10.37476741732112
 30
0.0
 11
11.03368634883868
 21
9.7131674173211238
 31
0.0
  0
LINE
  5
1044
  8
0
 10
12.83368634883867
 20
10.37476741732112
 30
0.0
 11
12.83368634883867
 21
9.7131674173211202
 31
0.0
  0
LINE
  5
1045
  8
0
 10
12.769686348838681
 20
10.37476741732112
 30
0.0
 11
12.76968634883869
 21
9.7131674173211202
 31
0.0
  0
LINE
  5
1046
  8
0
 10
12.76968634883869
 20
10.28636741732112
 30
0.0
 11
11.03368634883868
 21
10.28636741732112
 31
0.0
  0
LINE
  5
1047
  8
0
 10
12.76968634883869
 20
9.6501674173211232
 30
0.0
 11
12.76968634883869
 21
8.9131674173211231
 31
0.0
  0
LINE
  5
1048
  8
0
 10
12.83368634883867
 20
9.6501674173211232
 30
0.0
 11
12.83368634883867
 21
8.9131674173211231
 31
0.0
  0
LINE
  5
1049
  8
0
 10
10.969686348838691
 20
9.6501674173211232
 30
0.0
 11
10.969686348838691
 21
8.9131674173211231
 31
0.0
  0
LINE
  5
104A
  8
0
 10
11.03368634883868
 20
9.6501674173211232
 30
0.0
 11
11.03368634883868
 21
8.9131674173211231
 31
0.0
  0
POLYLINE
  5
104B
  8
0
 66
     1
 10
0.0
 20
0.0
 30
0.0
 70
     4
 75
     6
  0
VERTEX
  5
104C
  8
0
 10
7.976686348838669
 20
10.46316741732112
 30
0.0
 70
    16
  0
VERTEX
  5
104D
  8
0
 10
7.976686348838669
 20
10.46316741732112
 30
0.0
 70
     8
  0
VERTEX
  5
104E
  8
0
 10
7.8994816859995964
 20
10.4627277847173
 30
0.0
 70
     8
  0
VERTEX
  5
104F
  8
0
 10
7.8264947110989311
 20
10.46148818943932
 30
0.0
 70
     8
  0
VERTEX
  5
1050
  8
0
 10
7.7577055502503072
 20
10.45956758528742
 30
0.0
 70
     8
  0
VERTEX
  5
1051
  8
0
 10
7.6930943295673497
 20
10.45708492606183
 30
0.0
 70
     8
  0
VERTEX
  5
1052
  8
0
 10
7.6326411751637124
 20
10.45415916556278
 30
0.0
 70
     8
  0
VERTEX
  5
1053
  8
0
 10
7.5763262131530089
 20
10.45090925759051
 30
0.0
 70
     8
  0
VERTEX
  5
1054
  8
0
 10
7.524129569648891
 20
10.447454155945239
 30
0.0
 70
     8
  0
VERTEX
  5
1055
  8
0
 10
7.476031370764991
 20
10.443912814427231
 30
0.0
 70
     8
  0
VERTEX
  5
1056
  8
0
 10
7.4319418860985609
 20
10.44037645864506
 30
0.0
 70
     8
  0
VERTEX
  5
1057
  8
0
 10
7.3914919591814572
 20
10.436825401440871
 30
0.0
 70
     8
  0
VERTEX
  5
1058
  8
0
 10
7.3542425770291029
 20
10.433212227465139
 30
0.0
 70
     8
  0
VERTEX
  5
1059
  8
0
 10
7.3197547266569867
 20
10.42948952136836
 30
0.0
 70
     8
  0
VERTEX
  5
105A
  8
0
 10
7.2875893950805661
 20
10.42560986780105
 30
0.0
 70
     8
  0
VERTEX
  5
105B
  8
0
 10
7.2573075693152864
 20
10.421525851413669
 30
0.0
 70
     8
  0
VERTEX
  5
105C
  8
0
 10
7.228470236376622
 20
10.417190056856739
 30
0.0
 70
     8
  0
VERTEX
  5
105D
  8
0
 10
7.2006383832800278
 20
10.41255506878074
 30
0.0
 70
     8
  0
VERTEX
  5
105E
  8
0
 10
7.1734527925296243
 20
10.4075839921094
 30
0.0
 70
     8
  0
VERTEX
  5
105F
  8
0
 10
7.1468734285840787
 20
10.40228201285934
 30
0.0
 70
     8
  0
VERTEX
  5
1060
  8
0
 10
7.120940051390753
 20
10.39666483732044
 30
0.0
 70
     8
  0
VERTEX
  5
1061
  8
0
 10
7.0956924208969872
 20
10.390748171782549
 30
0.0
 70
     8
  0
VERTEX
  5
1062
  8
0
 10
7.0711702970501218
 20
10.38454772253553
 30
0.0
 70
     8
  0
VERTEX
  5
1063
  8
0
 10
7.0474134397975021
 20
10.37807919586924
 30
0.0
 70
     8
  0
VERTEX
  5
1064
  8
0
 10
7.0244616090864573
 20
10.371358298073551
 30
0.0
 70
     8
  0
VERTEX
  5
1065
  8
0
 10
7.0023545648643388
 20
10.3644007354383
 30
0.0
 70
     8
  0
VERTEX
  5
1066
  8
0
 10
6.9810989501236094
 20
10.35720693749121
 30
0.0
 70
     8
  0
VERTEX
  5
1067
  8
0
 10
6.960568940037211
 20
10.349716226711161
 30
0.0
 70
     8
  0
VERTEX
  5
1068
  8
0
 10
6.9406055928232089
 20
10.34185264881493
 30
0.0
 70
     8
  0
VERTEX
  5
1069
  8
0
 10
6.9210499666996821
 20
10.333540249519251
 30
0.0
 70
     8
  0
VERTEX
  5
106A
  8
0
 10
6.9017431198846921
 20
10.32470307454088
 30
0.0
 70
     8
  0
VERTEX
  5
106B
  8
0
 10
6.8825261105962952
 20
10.31526516959655
 30
0.0
 70
     8
  0
VERTEX
  5
106C
  8
0
 10
6.863239997052565
 20
10.305150580403019
 30
0.0
 70
     8
  0
VERTEX
  5
106D
  8
0
 10
6.8437258374715801
 20
10.294283352677031
 30
0.0
 70
     8
  0
VERTEX
  5
106E
  8
0
 10
6.8238776706653752
 20
10.282614001073711
 30
0.0
 70
     8
  0
VERTEX
  5
106F
  8
0
 10
6.803801457821903
 20
10.27019891600172
 30
0.0
 70
     8
  0
VERTEX
  5
1070
  8
0
 10
6.7836561407231031
 20
10.25712095680807
 30
0.0
 70
     8
  0
VERTEX
  5
1071
  8
0
 10
6.7636006611509032
 20
10.24346298283981
 30
0.0
 70
     8
  0
VERTEX
  5
1072
  8
0
 10
6.7437939608872384
 20
10.229307853443959
 30
0.0
 70
     8
  0
VERTEX
  5
1073
  8
0
 10
6.72439498171404
 20
10.21473842796755
 30
0.0
 70
     8
  0
VERTEX
  5
1074
  8
0
 10
6.705562665413245
 20
10.199837565757621
 30
0.0
 70
     8
  0
VERTEX
  5
1075
  8
0
 10
6.6874559537667793
 20
10.1846881261612
 30
0.0
 70
     8
  0
VERTEX
  5
1076
  8
0
 10
6.6702084499907883
 20
10.169367214378241
 30
0.0
 70
     8
  0
VERTEX
  5
1077
  8
0
 10
6.6538524030382362
 20
10.153928919020361
 30
0.0
 70
     8
  0
VERTEX
  5
1078
  8
0
 10
6.6383947232963001
 20
10.138421574552099
 30
0.0
 70
     8
  0
VERTEX
  5
1079
  8
0
 10
6.6238423211521518
 20
10.12289351543801
 30
0.0
 70
     8
  0
VERTEX
  5
107A
  8
0
 10
6.6102021069929631
 20
10.10739307614263
 30
0.0
 70
     8
  0
VERTEX
  5
107B
  8
0
 10
6.597480991205912
 20
10.091968591130501
 30
0.0
 70
     8
  0
VERTEX
  5
107C
  8
0
 10
6.5856858841781669
 20
10.07666839486617
 30
0.0
 70
     8
  0
VERTEX
  5
107D
  8
0
 10
6.5748236962969102
 20
10.06154082181418
 30
0.0
 70
     8
  0
VERTEX
  5
107E
  8
0
 10
6.5648886687463266
 20
10.04661694410693
 30
0.0
 70
     8
  0
VERTEX
  5
107F
  8
0
 10
6.5558243658986921
 20
10.031858784548239
 30
0.0
 70
     8
  0
VERTEX
  5
1080
  8
0
 10
6.5475616829232717
 20
10.017211103609791
 30
0.0
 70
     8
  0
VERTEX
  5
1081
  8
0
 10
6.540031514989364
 20
10.002618661763259
 30
0.0
 70
     8
  0
VERTEX
  5
1082
  8
0
 10
6.5331647572662481
 20
9.9880262194803322
 30
0.0
 70
     8
  0
VERTEX
  5
1083
  8
0
 10
6.5268923049231997
 20
9.9733785372326782
 30
0.0
 70
     8
  0
VERTEX
  5
1084
  8
0
 10
6.5211450531295139
 20
9.9586203754919822
 30
0.0
 70
     8
  0
VERTEX
  5
1085
  8
0
 10
6.5158538970544608
 20
9.9436964947299238
 30
0.0
 70
     8
  0
VERTEX
  5
1086
  8
0
 10
6.5109600975439932
 20
9.9285528062621449
 30
0.0
 70
     8
  0
VERTEX
  5
1087
  8
0
 10
6.5064463781506898
 20
9.9131398247801368
 30
0.0
 70
     8
  0
VERTEX
  5
1088
  8
0
 10
6.502305828103772
 20
9.8974092158193638
 30
0.0
 70
     8
  0
VERTEX
  5
1089
  8
0
 10
6.4985315366324761
 20
9.8813126449152744
 30
0.0
 70
     8
  0
VERTEX
  5
108A
  8
0
 10
6.4951165929660561
 20
9.8648017776033274
 30
0.0
 70
     8
  0
VERTEX
  5
108B
  8
0
 10
6.492054086333729
 20
9.8478282794189891
 30
0.0
 70
     8
  0
VERTEX
  5
108C
  8
0
 10
6.4893371059647347
 20
9.8303438158977041
 30
0.0
 70
     8
  0
VERTEX
  5
108D
  8
0
 10
6.4869587410883067
 20
9.8123000525749369
 30
0.0
 70
     8
  0
VERTEX
  5
108E
  8
0
 10
6.4849087370773191
 20
9.7937024774991173
 30
0.0
 70
     8
  0
VERTEX
  5
108F
  8
0
 10
6.483163463879114
 20
9.7747718687705767
 30
0.0
 70
     8
  0
VERTEX
  5
1090
  8
0
 10
6.48169594758469
 20
9.7557828270026263
 30
0.0
 70
     8
  0
VERTEX
  5
1091
  8
0
 10
6.4804792142850172
 20
9.7370099528085756
 30
0.0
 70
     8
  0
VERTEX
  5
1092
  8
0
 10
6.4794862900711081
 20
9.7187278468017286
 30
0.0
 70
     8
  0
VERTEX
  5
1093
  8
0
 10
6.4786902010339329
 20
9.701211109595393
 30
0.0
 70
     8
  0
VERTEX
  5
1094
  8
0
 10
6.478063973264474
 20
9.6847343418028782
 30
0.0
 70
     8
  0
VERTEX
  5
1095
  8
0
 10
6.477580632853722
 20
9.6695721440375006
 30
0.0
 70
     8
  0
VERTEX
  5
1096
  8
0
 10
6.477235968966303
 20
9.6558570333450682
 30
0.0
 70
     8
  0
VERTEX
  5
1097
  8
0
 10
6.4771168230613778
 20
9.6431531925014706
 30
0.0
 70
     8
  0
VERTEX
  5
1098
  8
0
 10
6.477332799671748
 20
9.6308827207150873
 30
0.0
 70
     8
  0
VERTEX
  5
1099
  8
0
 10
6.4779935033302092
 20
9.6184677171943171
 30
0.0
 70
     8
  0
VERTEX
  5
109A
  8
0
 10
6.479208538569571
 20
9.6053302811475518
 30
0.0
 70
     8
  0
VERTEX
  5
109B
  8
0
 10
6.4810875099226219
 20
9.5908925117831831
 30
0.0
 70
     8
  0
VERTEX
  5
109C
  8
0
 10
6.4837400219221664
 20
9.5745765083095975
 30
0.0
 70
     8
  0
VERTEX
  5
109D
  8
0
 10
6.4872756791010087
 20
9.5558043699351902
 30
0.0
 70
     8
  0
VERTEX
  5
109E
  8
0
 10
6.4917732714765446
 20
9.5341683342309462
 30
0.0
 70
     8
  0
VERTEX
  5
109F
  8
0
 10
6.497188331004601
 20
9.5099411922182266
 30
0.0
 70
     8
  0
VERTEX
  5
10A0
  8
0
 10
6.5034455751255891
 20
9.4835658732809929
 30
0.0
 70
     8
  0
VERTEX
  5
10A1
  8
0
 10
6.5104697212799394
 20
9.4554853068032028
 30
0.0
 70
     8
  0
VERTEX
  5
10A2
  8
0
 10
6.518185486908072
 20
9.4261424221688088
 30
0.0
 70
     8
  0
VERTEX
  5
10A3
  8
0
 10
6.5265175894504051
 20
9.3959801487617671
 30
0.0
 70
     8
  0
VERTEX
  5
10A4
  8
0
 10
6.5353907463473666
 20
9.3654414159660462
 30
0.0
 70
     8
  0
VERTEX
  5
10A5
  8
0
 10
6.5447296750393686
 20
9.3349691531655914
 30
0.0
 70
     8
  0
VERTEX
  5
10A6
  8
0
 10
6.5544845439886492
 20
9.3048876946965144
 30
0.0
 70
     8
  0
VERTEX
  5
10A7
  8
0
 10
6.5647073257446911
 20
9.275046994703489
 30
0.0
 70
     8
  0
VERTEX
  5
10A8
  8
0
 10
6.5754754438787861
 20
9.2451784122833356
 30
0.0
 70
     8
  0
VERTEX
  5
10A9
  8
0
 10
6.5868663219622192
 20
9.2150133065328834
 30
0.0
 70
     8
  0
VERTEX
  5
10AA
  8
0
 10
6.5989573835662849
 20
9.1842830365489565
 30
0.0
 70
     8
  0
VERTEX
  5
10AB
  8
0
 10
6.6118260522622787
 20
9.1527189614283717
 30
0.0
 70
     8
  0
VERTEX
  5
10AC
  8
0
 10
6.6255497516214827
 20
9.1200524402679548
 30
0.0
 70
     8
  0
VERTEX
  5
10AD
  8
0
 10
6.640205905215204
 20
9.0860148321645315
 30
0.0
 70
     8
  0
VERTEX
  5
10AE
  8
0
 10
6.6559300398392676
 20
9.0503034365691128
 30
0.0
 70
     8
  0
VERTEX
  5
10AF
  8
0
 10
6.673090095187681
 20
9.0124793143494717
 30
0.0
 70
     8
  0
VERTEX
  5
10B0
  8
0
 10
6.6921121141790021
 20
8.9720694667275716
 30
0.0
 70
     8
  0
VERTEX
  5
10B1
  8
0
 10
6.713422139731783
 20
8.9286008949253688
 30
0.0
 70
     8
  0
VERTEX
  5
10B2
  8
0
 10
6.7374462147645797
 20
8.8816006001648287
 30
0.0
 70
     8
  0
VERTEX
  5
10B3
  8
0
 10
6.7646103821959471
 20
8.8305955836679093
 30
0.0
 70
     8
  0
VERTEX
  5
10B4
  8
0
 10
6.7953406849444411
 20
8.7751128466565742
 30
0.0
 70
     8
  0
VERTEX
  5
10B5
  8
0
 10
6.8300631659286131
 20
8.7146793903527868
 30
0.0
 70
     8
  0
VERTEX
  5
10B6
  8
0
 10
6.8690381847737267
 20
8.6490245543343658
 30
0.0
 70
     8
  0
VERTEX
  5
10B7
  8
0
 10
6.911863367931935
 20
8.5786870316025556
 30
0.0
 70
     8
  0
VERTEX
  5
10B8
  8
0
 10
6.9579706585620684
 20
8.5044078535144578
 30
0.0
 70
     8
  0
VERTEX
  5
10B9
  8
0
 10
7.0067919998230002
 20
8.4269280514271792
 30
0.0
 70
     8
  0
VERTEX
  5
10BA
  8
0
 10
7.0577593348735581
 20
8.3469886566978211
 30
0.0
 70
     8
  0
VERTEX
  5
10BB
  8
0
 10
7.1103046068726172
 20
8.2653307006834886
 30
0.0
 70
     8
  0
VERTEX
  5
10BC
  8
0
 10
7.1638597589790223
 20
8.1826952147412868
 30
0.0
 70
     8
  0
VERTEX
  5
10BD
  8
0
 10
7.2178567343516118
 20
8.0998232302283171
 30
0.0
 70
     8
  0
VERTEX
  5
10BE
  8
0
 10
7.2718563408370249
 20
8.0172928566833832
 30
0.0
 70
     8
  0
VERTEX
  5
10BF
  8
0
 10
7.325934845032938
 20
7.9350305163721231
 30
0.0
 70
     8
  0
VERTEX
  5
10C0
  8
0
 10
7.3802973782248174
 20
7.8527997097418591
 30
0.0
 70
     8
  0
VERTEX
  5
10C1
  8
0
 10
7.4351490716981052
 20
7.77036393723992
 30
0.0
 70
     8
  0
VERTEX
  5
10C2
  8
0
 10
7.4906950567382671
 20
7.687486699313637
 30
0.0
 70
     8
  0
VERTEX
  5
10C3
  8
0
 10
7.5471404646307638
 20
7.603931496410345
 30
0.0
 70
     8
  0
VERTEX
  5
10C4
  8
0
 10
7.604690426661044
 20
7.51946182897737
 30
0.0
 70
     8
  0
VERTEX
  5
10C5
  8
0
 10
7.6635500741145579
 20
7.4338411974620433
 30
0.0
 70
     8
  0
VERTEX
  5
10C6
  8
0
 10
7.7238035633153128
 20
7.3469881408188389
 30
0.0
 70
     8
  0
VERTEX
  5
10C7
  8
0
 10
7.7850511507414009
 20
7.2594413520308292
 30
0.0
 70
     8
  0
VERTEX
  5
10C8
  8
0
 10
7.8467721179094729
 20
7.1718945625882142
 30
0.0
 70
     8
  0
VERTEX
  5
10C9
  8
0
 10
7.9084457463361622
 20
7.0850415039812082
 30
0.0
 70
     8
  0
VERTEX
  5
10CA
  8
0
 10
7.9695513175381123
 20
6.9995759077000201
 30
0.0
 70
     8
  0
VERTEX
  5
10CB
  8
0
 10
8.0295681130319672
 20
6.9161915052348579
 30
0.0
 70
     8
  0
VERTEX
  5
10CC
  8
0
 10
8.0879754143343661
 20
6.8355820280759358
 30
0.0
 70
     8
  0
VERTEX
  5
10CD
  8
0
 10
8.1442525029619386
 20
6.758441207713461
 30
0.0
 70
     8
  0
VERTEX
  5
10CE
  8
0
 10
8.1979601870170526
 20
6.6853497814929908
 30
0.0
 70
     8
  0
VERTEX
  5
10CF
  8
0
 10
8.248985380944859
 20
6.6164365101814768
 30
0.0
 70
     8
  0
VERTEX
  5
10D0
  8
0
 10
8.2972965257762379
 20
6.551717160401215
 30
0.0
 70
     8
  0
VERTEX
  5
10D1
  8
0
 10
8.3428620625420749
 20
6.4912074987745054
 30
0.0
 70
     8
  0
VERTEX
  5
10D2
  8
0
 10
8.3856504322732306
 20
6.434923291923643
 30
0.0
 70
     8
  0
VERTEX
  5
10D3
  8
0
 10
8.4256300760005942
 20
6.3828803064709287
 30
0.0
 70
     8
  0
VERTEX
  5
10D4
  8
0
 10
8.4627694347550406
 20
6.3350943090386611
 30
0.0
 70
     8
  0
VERTEX
  5
10D5
  8
0
 10
8.4970369495674305
 20
6.2915810662491332
 30
0.0
 70
     8
  0
VERTEX
  5
10D6
  8
0
 10
8.5284720686537128
 20
6.252264372743058
 30
0.0
 70
     8
  0
VERTEX
  5
10D7
  8
0
 10
8.5573982689700472
 20
6.2167001352347961
 30
0.0
 70
     8
  0
VERTEX
  5
10D8
  8
0
 10
8.5842100346576657
 20
6.184352288457112
 30
0.0
 70
     8
  0
VERTEX
  5
10D9
  8
0
 10
8.6093018498577862
 20
6.1546847671427791
 30
0.0
 70
     8
  0
VERTEX
  5
10DA
  8
0
 10
8.6330681987116336
 20
6.1271615060245637
 30
0.0
 70
     8
  0
VERTEX
  5
10DB
  8
0
 10
8.6559035653604486
 20
6.1012464398352391
 30
0.0
 70
     8
  0
VERTEX
  5
10DC
  8
0
 10
8.6782024339454367
 20
6.0764035033075716
 30
0.0
 70
     8
  0
VERTEX
  5
10DD
  8
0
 10
8.700359288607828
 20
6.0520966311743347
 30
0.0
 70
     8
  0
VERTEX
  5
10DE
  8
0
 10
8.7227515191031841
 20
6.027883044053258
 30
0.0
 70
     8
  0
VERTEX
  5
10DF
  8
0
 10
8.745688137644386
 20
6.0036931061019247
 30
0.0
 70
     8
  0
VERTEX
  5
10E0
  8
0
 10
8.7694610620586424
 20
5.979550467362885
 30
0.0
 70
     8
  0
VERTEX
  5
10E1
  8
0
 10
8.7943622101731762
 20
5.9554787778786862
 30
0.0
 70
     8
  0
VERTEX
  5
10E2
  8
0
 10
8.8206834998151891
 20
5.9315016876918731
 30
0.0
 70
     8
  0
VERTEX
  5
10E3
  8
0
 10
8.8487168488119021
 20
5.9076428468449924
 30
0.0
 70
     8
  0
VERTEX
  5
10E4
  8
0
 10
8.8787541749905259
 20
5.883925905380595
 30
0.0
 70
     8
  0
VERTEX
  5
10E5
  8
0
 10
8.9110873961782673
 20
5.8603745133412231
 30
0.0
 70
     8
  0
VERTEX
  5
10E6
  8
0
 10
8.9463780607171302
 20
5.8370756142379614
 30
0.0
 70
     8
  0
VERTEX
  5
10E7
  8
0
 10
8.9867662390081833
 20
5.814369325456008
 30
0.0
 70
     8
  0
VERTEX
  5
10E8
  8
0
 10
9.0347616319672834
 20
5.7926590578491073
 30
0.0
 70
     8
  0
VERTEX
  5
10E9
  8
0
 10
9.0928739405103052
 20
5.7723482222709901
 30
0.0
 70
     8
  0
VERTEX
  5
10EA
  8
0
 10
9.1636128655530911
 20
5.7538402295753972
 30
0.0
 70
     8
  0
VERTEX
  5
10EB
  8
0
 10
9.2494881080115121
 20
5.7375384906160631
 30
0.0
 70
     8
  0
VERTEX
  5
10EC
  8
0
 10
9.3530093688014073
 20
5.7238464162467251
 30
0.0
 70
     8
  0
VERTEX
  5
10ED
  8
0
 10
9.4766863488386566
 20
5.7131674173211211
 30
0.0
 70
     8
  0
VERTEX
  5
10EE
  8
0
 10
7.765165998339838
 20
10.46316741732112
 30
0.0
 70
    16
  0
VERTEX
  5
10EF
  8
0
 10
7.4325266162706196
 20
10.44356386586748
 30
0.0
 70
    16
  0
VERTEX
  5
10F0
  8
0
 10
7.1945960701330147
 20
10.41625223004551
 30
0.0
 70
    16
  0
VERTEX
  5
10F1
  8
0
 10
6.9929194028775044
 20
10.366757626634939
 30
0.0
 70
    16
  0
VERTEX
  5
10F2
  8
0
 10
6.8478537075430079
 20
10.30312167604462
 30
0.0
 70
    16
  0
VERTEX
  5
10F3
  8
0
 10
6.6780207917799421
 20
10.18645578524878
 30
0.0
 70
    16
  0
VERTEX
  5
10F4
  8
0
 10
6.564798847937892
 20
10.05918393992744
 30
0.0
 70
    16
  0
VERTEX
  5
10F5
  8
0
 10
6.5117259942499572
 20
9.9460533859265539
 30
0.0
 70
    16
  0
VERTEX
  5
10F6
  8
0
 10
6.4834205573890671
 20
9.8187814847458874
 30
0.0
 70
    16
  0
VERTEX
  5
10F7
  8
0
 10
6.4763442227236521
 20
9.6526209905394964
 30
0.0
 70
    16
  0
VERTEX
  5
10F8
  8
0
 10
6.476686348838669
 20
9.5881674173211238
 30
0.0
 70
    16
  0
VERTEX
  5
10F9
  8
0
 10
6.5405644565277168
 20
9.3295355597871517
 30
0.0
 70
    16
  0
VERTEX
  5
10FA
  8
0
 10
6.6294338752866793
 20
9.1035052625238322
 30
0.0
 70
    16
  0
VERTEX
  5
10FB
  8
0
 10
6.782935473616801
 20
8.7725323831047106
 30
0.0
 70
    16
  0
VERTEX
  5
10FC
  8
0
 10
7.2192032258177772
 20
8.0944415471740641
 30
0.0
 70
    16
  0
VERTEX
  5
10FD
  8
0
 10
7.6473920292217761
 20
7.4486408095689338
 30
0.0
 70
    16
  0
VERTEX
  5
10FE
  8
0
 10
8.1725291019824891
 20
6.7140423993224498
 30
0.0
 70
    16
  0
VERTEX
  5
10FF
  8
0
 10
8.5280065806199161
 20
6.245836839422032
 30
0.0
 70
    16
  0
VERTEX
  5
1100
  8
0
 10
8.6976662729424277
 20
6.0520966404842209
 30
0.0
 70
    16
  0
VERTEX
  5
1101
  8
0
 10
8.8834840592573414
 20
5.8583563856870882
 30
0.0
 70
    16
  0
VERTEX
  5
1102
  8
0
 10
9.1177759311509998
 20
5.7372687264388764
 30
0.0
 70
    16
  0
VERTEX
  5
1103
  8
0
 10
9.4766863488386672
 20
5.7131674173211211
 30
0.0
 70
    16
  0
SEQEND
  5
1104
  8
0
  0
POLYLINE
  5
1105
  8
0
 66
     1
 10
0.0
 20
0.0
 30
0.0
  0
VERTEX
  5
25FB
  8
0
 10
6.9763979177955511
 20
9.6501674173211232
 30
0.0
  0
VERTEX
  5
25FC
  8
0
 10
7.0180256104327281
 20
9.4816237979012161
 30
0.0
  0
VERTEX
  5
25FD
  8
0
 10
7.0893008149789054
 20
9.3003425889538267
 30
0.0
  0
VERTEX
  5
25FE
  8
0
 10
7.2220461621369552
 20
9.0141233556927993
 30
0.0
  0
VERTEX
  5
25FF
  8
0
 10
7.4502798302104249
 20
8.6593798341038788
 30
0.0
  0
SEQEND
  5
2600
  8
0
  0
LINE
  5
1107
  8
0
 10
9.1696863488386722
 20
8.0131674173211227
 30
0.0
 11
9.1696863488386793
 21
6.0881674173211238
 31
0.0
  0
LINE
  5
1108
  8
0
 10
9.233686348838674
 20
8.0131674173211227
 30
0.0
 11
9.233686348838674
 21
6.0881674173211238
 31
0.0
  0
ARC
  5
1109
  8
0
 10
9.7843829077901887
 20
7.0881674173211229
 30
0.0
 40
1.0
 50
221.36803831109691
 51
232.07012496879361
  0
ARC
  5
110A
  8
0
 10
9.7843829077901887
 20
7.0881674173211229
 30
0.0
 40
1.0
 50
236.58518704430929
 51
269.99999999999989
  0
LINE
  5
110B
  8
0
 10
9.0171876684179182
 20
6.4462553087014447
 30
0.0
 11
9.0171494265621632
 21
6.4462167966839772
 31
0.0
  0
LINE
  5
110C
  8
0
 10
9.0171876684179182
 20
6.4462553087014483
 30
0.0
 11
9.0339030508568143
 21
6.4272740943579842
 31
0.0
  0
LINE
  5
110D
  8
0
 10
9.1696863488386793
 20
8.8501674173211224
 30
0.0
 11
9.1696863488386722
 21
8.0761674173211233
 31
0.0
  0
LINE
  5
110E
  8
0
 10
9.2336863488386793
 20
8.8501674173211224
 30
0.0
 11
9.233686348838674
 21
8.0761674173211233
 31
0.0
  0
LINE
  5
110F
  8
0
 10
9.1696863488386793
 20
10.28636741732112
 30
0.0
 11
6.8302617813087201
 21
10.28636741732112
 31
0.0
  0
POLYLINE
  5
1110
  8
0
 66
     1
 10
0.0
 20
0.0
 30
0.0
  0
VERTEX
  5
2601
  8
0
 10
7.9905170111081016
 20
10.09836741732112
 30
0.0
  0
VERTEX
  5
2602
  8
0
 10
7.848402167214914
 20
10.098817265351819
 30
0.0
  0
VERTEX
  5
2603
  8
0
 10
7.6785579682594678
 20
10.088426983664879
 30
0.0
  0
VERTEX
  5
2604
  8
0
 10
7.4393893338143737
 20
10.07110989719056
 30
0.0
  0
VERTEX
  5
2605
  8
0
 10
7.2938085170073048
 20
10.036475873253501
 30
0.0
  0
VERTEX
  5
2606
  8
0
 10
7.1898219947521209
 20
10.005305177204351
 30
0.0
  0
VERTEX
  5
2607
  8
0
 10
7.0789032647105881
 20
9.9498904408818376
 30
0.0
  0
VERTEX
  5
2608
  8
0
 10
7.0303762384553741
 20
9.9014026583583394
 30
0.0
  0
VERTEX
  5
2609
  8
0
 10
6.988781681945027
 20
9.8355979383721408
 30
0.0
  0
VERTEX
  5
260A
  8
0
 10
6.9679845346690561
 20
9.731695419526126
 30
0.0
  0
VERTEX
  5
260B
  8
0
 10
6.9695297948142247
 20
9.7131674173211238
 30
0.0
  0
SEQEND
  5
260C
  8
0
  0
LINE
  5
1111
  8
0
 10
9.1696863488386793
 20
10.37476741732112
 30
0.0
 11
9.1696863488386793
 21
9.7131674173211202
 31
0.0
  0
LINE
  5
1112
  8
0
 10
9.233686348838674
 20
10.37476741732112
 30
0.0
 11
9.2336863488386793
 21
9.7131674173211202
 31
0.0
  0
LINE
  5
1113
  8
0
 10
9.1696863488386793
 20
10.09836741732112
 30
0.0
 11
7.8410487497881931
 21
10.09836741732112
 31
0.0
  0
LINE
  5
1114
  8
0
 10
9.1696863488386793
 20
9.6501674173211196
 30
0.0
 11
9.1696863488386793
 21
8.9131674173211231
 31
0.0
  0
LINE
  5
1115
  8
0
 10
9.2336863488386793
 20
9.6501674173211196
 30
0.0
 11
9.2336863488386793
 21
8.9131674173211231
 31
0.0
  0
POLYLINE
  5
1117
  8
0
 66
     1
 10
0.0
 20
0.0
 30
0.0
  0
VERTEX
  5
260D
  8
0
 10
7.4876916979558841
 20
8.6012305793279733
 30
0.0
  0
VERTEX
  5
260E
  8
0
 10
7.637829140169484
 20
8.3678719980863097
 30
0.0
  0
VERTEX
  5
260F
  8
0
 10
8.0603409539565796
 20
7.7306333808655294
 30
0.0
  0
SEQEND
  5
2610
  8
0
  0
POLYLINE
  5
1118
  8
0
 66
     1
 10
0.0
 20
0.0
 30
0.0
  0
VERTEX
  5
2611
  8
0
 10
8.0989585805246485
 20
7.676730745359321
 30
0.0
  0
VERTEX
  5
2612
  8
0
 10
8.5751041668543238
 20
7.0106650476456878
 30
0.0
  0
VERTEX
  5
2613
  8
0
 10
8.9156714506461956
 20
6.5620979642885526
 30
0.0
  0
VERTEX
  5
2614
  8
0
 10
9.0171494265621632
 20
6.4462167966839763
 30
0.0
  0
SEQEND
  5
2615
  8
0
  0
POLYLINE
  5
111A
  8
0
 66
     1
 10
0.0
 20
0.0
 30
0.0
  0
VERTEX
  5
2616
  8
0
 10
37.465680999721449
 20
8.6012305793279751
 30
0.0
  0
VERTEX
  5
2617
  8
0
 10
37.315543557507851
 20
8.3678719980863097
 30
0.0
  0
VERTEX
  5
2618
  8
0
 10
36.893031743720762
 20
7.7306333808655259
 30
0.0
  0
SEQEND
  5
2619
  8
0
  0
LINE
  5
111C
  8
0
 10
14.183027918578979
 20
-3.0571183191324569
 30
0.0
 11
31.963282877845529
 21
-3.057118319132456
 31
0.0
  0
LINE
  5
111D
  8
0
 10
14.60643332523996
 20
-2.932118319132456
 30
0.0
 11
31.963282877845529
 21
-2.932118319132456
 31
0.0
  0
LINE
  5
111F
  8
0
 10
16.463282877845529
 20
-2.932118319132456
 30
0.0
 11
16.463282877845529
 21
0.0633967626463494
 31
0.0
1001
ACAD
1000
ASC_BOUNDS
1002
{
1070
    19
1005
1299
1002
}
  0
LINE
  5
1120
  8
0
 10
21.213282877845529
 20
-2.932118319132456
 30
0.0
 11
21.213282877845529
 21
-0.1838425385136695
 31
0.0
  0
LINE
  5
1123
  8
0
 10
16.463282877845529
 20
0.1928816808675435
 30
0.0
 11
21.213282877845529
 21
-0.0571183191324565
 31
0.0
  0
LINE
  5
1124
  8
0
 10
11.83828287784552
 20
-2.8617168183849682
 30
0.0
 11
11.83828287784552
 21
-1.0571183191324549
 31
0.0
  0
LINE
  5
1125
  8
0
 10
11.96328287784552
 20
-2.7536656281737959
 30
0.0
 11
11.96328287784552
 21
-1.152819453569867
 31
0.0
1001
ACAD
1000
ASC_BOUNDS
1002
{
1070
    19
1005
1BE4
1002
}
  0
LINE
  5
112A
  8
0
 10
13.46328287784552
 20
-2.9045436643588189
 30
0.0
 11
13.463282877845529
 21
-0.747414048164462
 31
0.0
  0
LINE
  5
1145
  8
0
 10
13.338282877845529
 20
-2.8968107403944341
 30
0.0
 11
13.338282877845529
 21
-0.7811978319482459
 31
0.0
1001
ACAD
1000
ASC_BOUNDS
1002
{
1070
    19
1005
1BE4
1002
}
  0
LINE
  5
114A
  8
0
 10
11.83828287784552
 20
-1.186603237353649
 30
0.0
 11
16.47663649526277
 21
0.0670058484347914
 31
0.0
1001
ACAD
1000
ASC_BOUNDS
1002
{
1070
    19
1005
1BE4
1005
1299
1002
}
  0
LINE
  5
114E
  8
0
 10
14.838282877845529
 20
-2.932118319132456
 30
0.0
 11
14.838282877845529
 21
-0.3757924265428416
 31
0.0
  0
LINE
  5
114F
  8
0
 10
14.96328287784552
 20
-2.932118319132456
 30
0.0
 11
14.96328287784552
 21
-0.3420086427590565
 31
0.0
  0
LINE
  5
11B9
  8
0
 10
16.588282877845518
 20
-2.932118319132456
 30
0.0
 11
16.588282877845529
 21
0.0611297230356982
 31
0.0
  0
LINE
  5
11BA
  8
0
 10
16.47663649526277
 20
0.0670058484347914
 30
0.0
 11
21.19967996887414
 21
-0.1815753870184391
 31
0.0
  0
LINE
  5
11BB
  8
0
 10
35.463282877845529
 20
-3.057118319132456
 30
0.0
 11
35.463282877845529
 21
-2.432118319132456
 31
0.0
  0
LINE
  5
11BD
  8
0
 10
35.463282877845529
 20
-2.432118319132456
 30
0.0
 11
21.213282877845529
 21
-0.0571183191324565
 31
0.0
  0
LINE
  5
11BE
  8
0
 10
35.463282877845529
 20
-2.5588425385136682
 30
0.0
 11
21.19967996887414
 21
-0.1815753870184391
 31
0.0
  0
LINE
  5
11C2
  8
0
 10
18.77528287784553
 20
-0.0539755401221962
 30
0.0
 11
18.77528287784553
 21
-2.932118319132456
 31
0.0
  0
LINE
  5
11C3
  8
0
 10
18.901282877845521
 20
-0.0606071190695645
 30
0.0
 11
18.901282877845521
 21
-2.932118319132456
 31
0.0
  0
LINE
  5
11C5
  8
0
 10
21.087282877845531
 20
-2.932118319132456
 30
0.0
 11
21.087282877845521
 21
-0.1756597506485118
 31
0.0
  0
LINE
  5
11C6
  8
0
 10
31.963282877845529
 20
-3.057118319132456
 30
0.0
 11
31.963282877845529
 21
-1.975509205180334
 31
0.0
  0
LINE
  5
11C7
  8
0
 10
31.963282877845529
 20
-3.057118319132456
 30
0.0
 11
35.463282877845529
 21
-3.057118319132456
 31
0.0
  0
LINE
  5
11C8
  8
0
 10
31.963282877845529
 20
-2.432118319132456
 30
0.0
 11
34.702937561558251
 21
-2.432118319132456
 31
0.0
  0
LINE
  5
11C9
  8
0
 10
31.838282877845529
 20
-2.932118319132456
 30
0.0
 11
31.83828287784554
 21
-1.9546758718470001
 31
0.0
  0
LINE
  5
11CA
  8
0
 10
23.23728287784553
 20
-2.932118319132456
 30
0.0
 11
23.237282877845519
 21
-0.5211758718470021
 31
0.0
  0
LINE
  5
11CB
  8
0
 10
23.363282877845531
 20
-2.932118319132456
 30
0.0
 11
23.363282877845531
 21
-0.5421758718470022
 31
0.0
  0
LINE
  5
11CC
  8
0
 10
25.513282877845519
 20
-2.932118319132456
 30
0.0
 11
25.513282877845519
 21
-0.9005092051803352
 31
0.0
  0
LINE
  5
11CD
  8
0
 10
25.387282877845529
 20
-2.932118319132456
 30
0.0
 11
25.387282877845522
 21
-0.8795092051803353
 31
0.0
  0
LINE
  5
11CE
  8
0
 10
27.537282877845531
 20
-2.932118319132456
 30
0.0
 11
27.53728287784552
 21
-1.2378425385136671
 31
0.0
  0
LINE
  5
11CF
  8
0
 10
27.663282877845521
 20
-2.932118319132456
 30
0.0
 11
27.663282877845521
 21
-1.258842538513667
 31
0.0
  0
LINE
  5
11D0
  8
0
 10
29.81328287784552
 20
-2.932118319132456
 30
0.0
 11
29.81328287784552
 21
-1.6171758718470011
 31
0.0
  0
LINE
  5
11D1
  8
0
 10
29.687282877845529
 20
-2.932118319132456
 30
0.0
 11
29.687282877845519
 21
-1.596175871847
 31
0.0
  0
LINE
  5
11D2
  8
0
 10
30.56328287784552
 20
-2.932118319132456
 30
0.0
 11
30.56328287784552
 21
-1.742175871847
 31
0.0
  0
ARC
  5
11F2
  8
0
 10
14.510655398212201
 20
15.040022290432271
 30
0.0
 40
18.100106022003501
 50
261.50958100246658
 51
268.96284049243877
  0
ARC
  5
11F3
  8
0
 10
14.510655398212201
 20
15.040022290432271
 30
0.0
 40
17.975106022003501
 50
261.45009747824651
 51
271.0371595075618
1001
ACAD
1000
ASC_BOUNDS
1002
{
1070
    19
1005
1BE4
1002
}
  0
LINE
  5
11F4
  8
0
 10
14.96328287784552
 20
-0.342008642759057
 30
0.0
 11
16.463282877845529
 21
-1.4322048243641681
 31
0.0
  0
LINE
  5
11F5
  8
0
 10
16.463282877845529
 20
-1.4322048243641681
 30
0.0
 11
14.96328287784552
 21
-2.932118319132456
 31
0.0
  0
LINE
  5
11F6
  8
0
 10
15.1182645563826
 20
-0.3001217026138994
 30
0.0
 11
16.463282877845529
 21
-1.2776775947790899
 31
0.0
1001
ACAD
1000
ASC_BOUNDS
1002
{
1070
    19
1005
1299
1002
}
  0
LINE
  5
11F7
  8
0
 10
16.463282877845529
 20
-1.6089764223646339
 30
0.0
 11
15.14006467087931
 21
-2.932118319132456
 31
0.0
  0
LINE
  5
1204
  8
0
 10
22.476686348838669
 20
4.6479788790759127
 30
0.0
 11
29.206618858538729
 21
4.6479788790759127
 31
0.0
  0
LINE
  5
1205
  8
0
 10
35.463282877845529
 20
-5.4694639098869473
 30
0.0
 11
35.463282877845529
 21
-5.7194639098869473
 31
0.0
  0
LINE
  5
1206
  8
GCL
 10
35.62481190742465
 20
-5.5944639098869171
 30
0.0
 11
9.1656283881228102
 21
-5.5944639098869171
 31
0.0
  0
LINE
  5
1207
  8
0
 10
11.83828287784552
 20
-4.96946390988691
 30
0.0
 11
11.83828287784552
 21
-6.2194639098869251
 31
0.0
  0
LINE
  5
1209
  8
0
 10
16.588282877845518
 20
-4.719466819284861
 30
0.0
 11
16.588282877845518
 21
-6.4694639098869171
 31
0.0
  0
LINE
  5
120B
  8
0
 10
16.588282877845518
 20
-4.5944639098869171
 30
0.0
 11
21.213282877845529
 21
-4.5944639098869171
 31
0.0
  0
LINE
  5
120C
  8
0
 10
16.588282877845518
 20
-6.5944639098869171
 30
0.0
 11
21.213282877845781
 21
-6.5944639098869473
 31
0.0
  0
ARC
  5
120E
  8
0
 10
16.813885708138351
 20
-37.722933093595998
 30
0.0
 40
33.12923734547779
 50
90.390174690503812
 51
98.637802225498703
  0
ARC
  5
120F
  8
0
 10
16.813885708138351
 20
26.534005273822171
 30
0.0
 40
33.12923734547779
 50
261.36219777450128
 51
269.6098253094961
  0
ARC
  5
1214
  8
0
 10
12.8523172647136
 20
-9.7838044877933932
 30
0.0
 40
4.9199736724730387
 50
101.8942305829835
 51
112.28838865448
  0
ARC
  5
1215
  8
0
 10
11.39760479772529
 20
-6.5372078539694609
 30
0.0
 40
1.369027309068886
 50
107.4826613432664
 51
125.1167419979727
  0
ARC
  5
1217
  8
0
 10
10.83678817535761
 20
-5.7736270668840701
 30
0.0
 40
0.4222757842850214
 50
122.4710322676183
 51
149.81309193174471
  0
ARC
  5
1218
  8
0
 10
10.517505568338731
 20
-5.5906800688916389
 30
0.0
 40
0.0543545547033463
 50
147.27716896052519
 51
183.99182015859279
  0
ARC
  5
1219
  8
0
 10
12.8523172647136
 20
-1.4051233319804399
 30
0.0
 40
4.9199736724730387
 50
247.71161134552
 51
258.10576941701652
  0
ARC
  5
121A
  8
0
 10
11.39760479772529
 20
-4.6517199658043751
 30
0.0
 40
1.369027309068886
 50
234.8832580020273
 51
252.5173386567335
  0
ARC
  5
121B
  8
0
 10
10.83678817535761
 20
-5.4153007528897668
 30
0.0
 40
0.4222757842850214
 50
210.18690806825529
 51
237.52896773238169
  0
ARC
  5
121C
  8
0
 10
10.517505568338731
 20
-5.5982477508821971
 30
0.0
 40
0.0543545547033463
 50
176.00817984140721
 51
212.7228310394747
  0
LINE
  5
121D
  8
0
 10
21.213282877845529
 20
-4.7194639098869171
 30
0.0
 11
21.213282877845529
 21
-6.4694639098869473
 31
0.0
  0
LINE
  5
121E
  8
0
 10
29.687282877845519
 20
-5.1572355810041071
 30
0.0
 11
29.687282877845519
 21
-6.031692238769784
 31
0.0
  0
ARC
  5
1223
  8
0
 10
10.125817996451881
 20
-301.63496340686947
 30
0.0
 40
297.24735527656588
 50
85.110154647811356
 51
87.862344830978643
  0
ARC
  5
1224
  8
0
 10
10.125817996451881
 20
-301.63496340686947
 30
0.0
 40
297.122355276566
 50
85.110154647811356
 51
87.862344830978643
1001
ACAD
1000
ASC_BOUNDS
1002
{
1070
    19
1005
2062
1005
205D
1002
}
  0
ARC
  5
1225
  8
0
 10
10.125817996451881
 20
290.44603558709559
 30
0.0
 40
297.122355276566
 50
272.1376551690214
 51
274.88984535218867
1001
ACAD
1000
ASC_BOUNDS
1002
{
1070
    19
1005
2062
1005
205D
1002
}
  0
ARC
  5
1226
  8
0
 10
10.125817996451881
 20
290.44603558709559
 30
0.0
 40
297.24735527656588
 50
272.1376551690214
 51
274.88984535218867
  0
LINE
  5
1227
  8
0
 10
16.588282877845518
 20
-4.7194639098869171
 30
0.0
 11
21.213282877845529
 21
-4.7194639098869171
 31
0.0
  0
LINE
  5
1228
  8
0
 10
16.588282877845518
 20
-6.4694639098869171
 30
0.0
 11
21.213282877845781
 21
-6.4694639098869473
 31
0.0
  0
ARC
  5
1229
  8
0
 10
16.813885708138351
 20
26.534005273822171
 30
0.0
 40
33.004237345477783
 50
261.3292314637801
 51
269.6098253094961
1001
ACAD
1000
ASC_BOUNDS
1002
{
1070
    19
1005
1241
1002
}
  0
ARC
  5
122A
  8
0
 10
16.813885708138351
 20
-37.722933093595998
 30
0.0
 40
33.004237345477783
 50
90.390174690503812
 51
98.670768536219882
1001
ACAD
1000
ASC_BOUNDS
1002
{
1070
    19
1005
1241
1002
}
  0
LINE
  5
122B
  8
0
 10
11.96328287784552
 20
-5.0770859620023003
 30
0.0
 11
11.96328287784552
 21
-6.1118418577715294
 31
0.0
1001
ACAD
1000
ASC_BOUNDS
1002
{
1070
    19
1005
1241
1002
}
  0
LINE
  5
122C
  8
0
 10
13.46328287784552
 20
-4.8892134835630472
 30
0.0
 11
13.46328287784552
 21
-6.2997143362107959
 31
0.0
  0
LINE
  5
122D
  8
0
 10
14.96328287784552
 20
-4.7706197920819289
 30
0.0
 11
14.96328287784552
 21
-6.4183080276919071
 31
0.0
  0
LINE
  5
122E
  8
0
 10
18.77528287784553
 20
-4.7194639098869171
 30
0.0
 11
18.77528287784553
 21
-6.4694639098869322
 31
0.0
  0
LINE
  5
122F
  8
0
 10
13.33828287784552
 20
-4.9022099491756492
 30
0.0
 11
13.33828287784552
 21
-6.2867178705981797
 31
0.0
1001
ACAD
1000
ASC_BOUNDS
1002
{
1070
    19
1005
1241
1002
}
  0
LINE
  5
1230
  8
0
 10
14.83828287784552
 20
-4.7778776798686149
 30
0.0
 11
14.838282877845529
 21
-6.4110501399052211
 31
0.0
  0
LINE
  5
1231
  8
0
 10
16.463282877845518
 20
-4.7194639098869171
 30
0.0
 11
16.463282877845518
 21
-6.4694639098869171
 31
0.0
  0
LINE
  5
1232
  8
0
 10
18.90028287784553
 20
-4.7194639098869171
 30
0.0
 11
18.90028287784553
 21
-6.4694639098869331
 31
0.0
  0
LINE
  5
1233
  8
0
 10
23.363282877845531
 20
-4.8076339228615614
 30
0.0
 11
23.363282877845521
 21
-6.3812938969122168
 31
0.0
  0
LINE
  5
1234
  8
0
 10
25.51328287784553
 20
-4.9113210565879584
 30
0.0
 11
25.51328287784553
 21
-6.2776067631858803
 31
0.0
  0
LINE
  5
1235
  8
0
 10
27.663282877845521
 20
-5.0306287611535989
 30
0.0
 11
27.663282877845521
 21
-6.1582990586201802
 31
0.0
  0
LINE
  5
1236
  8
0
 10
21.088282877845529
 20
-4.7194639098869171
 30
0.0
 11
21.088282877845518
 21
-6.4740182469593659
 31
0.0
  0
LINE
  5
1237
  8
0
 10
23.238282877845521
 20
-4.8020857301739346
 30
0.0
 11
23.238282877845521
 21
-6.3868420895999591
 31
0.0
  0
LINE
  5
1238
  8
0
 10
25.38828287784553
 20
-4.904865218569574
 30
0.0
 11
25.38828287784553
 21
-6.284062601204317
 31
0.0
  0
LINE
  5
1239
  8
0
 10
27.538282877845528
 20
-5.0232642582213369
 30
0.0
 11
27.538282877845528
 21
-6.1656635615524991
 31
0.0
  0
LINE
  5
123A
  8
0
 10
29.812282877845529
 20
-5.1655094903359844
 30
0.0
 11
29.812282877845529
 21
-6.0234183294377939
 31
0.0
1001
ACAD
1000
ASC_BOUNDS
1002
{
1070
    19
1005
2062
1002
}
  0
LINE
  5
123B
  8
0
 10
31.963282877845529
 20
-5.3161838254062621
 30
0.0
 11
31.963282877845529
 21
-5.8727439943676307
 31
0.0
1001
ACAD
1000
ASC_BOUNDS
1002
{
1070
    19
1005
205D
1002
}
  0
LINE
  5
123C
  8
0
 10
31.838282877845518
 20
-5.3069983514799404
 30
0.0
 11
31.838282877845529
 21
-5.8819294682938974
 31
0.0
1001
ACAD
1000
ASC_BOUNDS
1002
{
1070
    19
1005
2062
1002
}
  0
INSERT
  5
1241
  8
0
  6
CONTINUOUS
  2
*X2
 10
0.0
 20
0.0
 30
0.0
1001
ACAD
1000
HATCH
1002
{
1070
    19
1000
FLEX
1040
0.75
1040
1.570796326794895
1000
ASC_BOUNDS
1070
     1
1070
     1
1070
     4
1005
122F
1005
1229
1005
122B
1005
122A
1000
ASC_SEEDPOINT
1011
12.34348233260928
1021
0.0
1031
0.0
1021
-5.4610108390367804
1031
0.0
1000
R14_HATCH_DATA
1000
1241
1011
1.0
1021
0.0
1031
0.0
1021
0.0
1031
0.0
1011
0.0
1021
0.0
1031
0.0
1021
1.0
1031
0.0
1011
0.0
1021
0.0
1031
0.0
1021
0.0
1031
1.0
1040
0.0
1010
0.0
1020
0.0
1030
1.0
1000
FLEX
1070
     0
1070
     1
1071
        1
1071
        7
1070
     1
1070
     1
1071
        4
1040
13.33828287784552
1040
-4.9022099491756492
1040
0.0105003850769499
1040
11.96328287784552
1040
-5.0770859620023074
1040
0.0
1040
11.96328287784552
1040
-6.1118418577715321
1040
0.0105003850769499
1040
13.33828287784552
1040
-6.2867178705981921
1040
0.0
1071
        4
1005
122A
1005
122B
1005
1229
1005
122F
1070
     0
1070
     1
1040
1.570796326794895
1040
0.75
1070
     0
1070
     2
1040
1.570796326794895
1040
0.0
1040
0.0
1040
-0.1875
1040
0.0
1070
     2
1040
0.1875
1040
-0.1875
1040
2.3561944901923431
1040
0.0
1040
0.1875
1040
-0.1874999996853691
1040
0.0
1070
     4
1040
0.046875
1040
-0.17141504325
1040
0.046875
1040
-0.26516504325
1040
0.0042366052444904
1071
        1
1040
12.34348233260928
1040
-5.4610108390367804
1040
0.0
1002
}
  0
LINE
  5
1242
  8
0
 10
14.838282877845529
 20
-3.0571183191324569
 30
0.0
 11
14.838282877845529
 21
-4.243749469638912
 31
0.0
  0
LINE
  5
1243
  8
0
 10
14.77528287784553
 20
-3.0571183191324569
 30
0.0
 11
14.77528287784553
 21
-4.243749469638912
 31
0.0
  0
LINE
  5
1244
  8
0
 10
14.77528287784553
 20
-2.932118319132456
 30
0.0
 11
14.77528287784553
 21
-0.3928194535698671
 31
0.0
  0
ARC
  5
124C
  8
0
 10
14.791032877845529
 20
-4.243749469638912
 30
0.0
 40
0.0157499999999988
 50
0.0
 51
180.0
  0
ARC
  5
124D
  8
0
 10
14.82253287784553
 20
-4.243749469638912
 30
0.0
 40
0.0157499999999988
 50
180.0
 51
0.0
  0
LINE
  5
124E
  8
GCL
 10
9.8175277133257435
 20
-2.1983164359247152
 30
0.0
 11
14.297033251277311
 21
-2.1983164359247152
 31
0.0
  0
POLYLINE
  5
127D
  8
0
 66
     1
 10
0.0
 20
0.0
 30
0.0
 70
     2
  0
VERTEX
  5
127F
  8
0
 10
10.463282877845529
 20
-2.1983164359247152
 30
0.0
 42
-0.0354286458732109
  0
VERTEX
  5
1287
  8
0
 10
10.48649201134176
 20
-2.0638949095590799
 30
0.0
 42
-0.0677178184533367
 70
     1
  0
VERTEX
  5
1280
  8
0
 10
10.512854077690561
 20
-1.997319594585782
 30
0.0
 42
-0.0211458727768774
  0
VERTEX
  5
1288
  8
0
 10
10.61882468144576
 20
-1.826227177239345
 30
0.0
 42
-0.0388113348840876
 70
     1
  0
VERTEX
  5
1281
  8
0
 10
10.687366806242149
 20
-1.74049213014754
 30
0.0
 42
-0.0143047348889624
  0
VERTEX
  5
1289
  8
0
 10
10.80527166661378
 20
-1.621451678239167
 30
0.0
 42
-0.0207510311071053
 70
     1
  0
VERTEX
  5
1282
  8
0
 10
10.892117461020019
 20
-1.5452686306083321
 30
0.0
 42
-0.0146644899542372
  0
VERTEX
  5
128A
  8
0
 10
11.023458608203249
 20
-1.44557492882329
 30
0.0
 42
-0.015400288130955
 70
     1
  0
VERTEX
  5
1283
  8
0
 10
11.154005669047271
 20
-1.3583290800783741
 30
0.0
 42
-0.0174614731053536
  0
VERTEX
  5
128C
  8
0
 10
11.21103781841324
 20
-1.3254150256422701
 30
0.0
 42
-0.0038819138382695
 70
     1
  0
VERTEX
  5
1284
  8
0
 10
11.473585298926221
 20
-1.1884834548167591
 30
0.0
 42
-0.03182058347449
  0
VERTEX
  5
128B
  8
0
 10
11.604358902807309
 20
-1.1317454338508091
 30
0.0
 42
-0.0184615080377028
 70
     1
  0
VERTEX
  5
1285
  8
0
 10
11.83828287784524
 20
-1.057118319132603
 30
0.0
  0
SEQEND
  5
1286
  8
0
  0
LINE
  5
127E
  8
0
 10
11.80566924970268
 20
-1.065932813225116
 30
0.0
 11
16.463282877845529
 21
0.1928816808675436
 31
0.0
  0
LINE
  5
128E
  8
0
 10
10.463282877845529
 20
-2.1983164359247152
 30
0.0
 11
10.463282877845529
 21
-2.3122822338335922
 31
0.0
  0
ARC
  5
128F
  8
0
 10
12.591664777116639
 20
2.4012339372572882
 30
0.0
 40
5.3165999419238572
 50
253.46501071158019
 51
261.8535557928725
  0
ARC
  5
1290
  8
0
 10
12.21374916475594
 20
0.7710360491155484
 30
0.0
 40
3.6476791053453712
 50
246.4847442458304
 51
251.86785254737481
  0
ARC
  5
1291
  8
0
 10
11.147140265934651
 20
-1.6992051646763251
 30
0.0
 40
0.9570421365130805
 50
230.094281628348
 51
246.03104075089271
  0
ARC
  5
1292
  8
0
 10
10.682794247087781
 20
-2.26627441482418
 30
0.0
 40
0.2242809859007444
 50
191.8373860017202
 51
228.15508492653001
  0
INSERT
  5
1299
  8
0
  6
CONTINUOUS
 62
     1
  2
*X3
 10
0.0
 20
0.0
 30
0.0
1001
ACAD
1000
HATCH
1002
{
1070
    19
1000
STEEL
1040
1.25
1040
2.3561944901923431
1000
ASC_BOUNDS
1070
     1
1070
     1
1070
     3
1005
111F
1005
11F6
1005
114A
1000
ASC_SEEDPOINT
1011
15.94674367586444
1021
0.0
1031
0.0
1021
-0.4536823580416609
1031
0.0
1000
R14_HATCH_DATA
1000
1299
1011
1.0
1021
0.0
1031
0.0
1021
0.0
1031
0.0
1011
0.0
1021
0.0
1031
0.0
1021
1.0
1031
0.0
1011
0.0
1021
0.0
1031
0.0
1021
0.0
1031
1.0
1040
0.0
1010
0.0
1020
0.0
1030
1.0
1000
STEEL
1070
     0
1070
     1
1071
        1
1071
        7
1070
     0
1070
     1
1071
        3
1040
16.463282877845529
1040
-1.277677594779089
1040
16.463282877845529
1040
0.0633967626463482
1040
15.118264556382609
1040
-0.300121702613901
1071
        3
1005
114A
1005
11F6
1005
111F
1070
     0
1070
     1
1040
2.3561944901923431
1040
1.25
1070
     0
1070
     2
1040
3.1415926535897918
1040
0.0
1040
0.0
1040
0.0
1040
-0.15625
1070
     0
1040
3.1415926535897918
1040
-0.055242717280199
1040
-0.055242717280199
1040
0.0
1040
-0.15625
1070
     0
1040
0.0120319588274051
1071
        1
1040
15.94674367586444
1040
-0.4536823580416609
1040
0.0
1002
}
  0
LINE
  5
129F
  8
0
 10
9.1696863488386757
 20
8.0131674173211263
 30
0.0
 11
7.6035886177157659
 21
7.5210790226626267
 31
0.0
  0
LINE
  5
12A0
  8
0
 10
9.160021573115241
 20
8.0761674173211233
 30
0.0
 11
7.566530419362107
 21
7.575471650914098
 31
0.0
  0
LINE
  5
12A5
  8
0
 10
9.1696863488386722
 20
8.8501674173211224
 30
0.0
 11
6.947496859257134
 21
8.5212812198128827
 31
0.0
  0
LINE
  5
12A6
  8
0
 10
9.1650495720982246
 20
8.9131674173211231
 30
0.0
 11
6.9113011332668091
 21
8.5796104647468532
 31
0.0
  0
LINE
  5
12A8
  8
0
 10
35.783686348838671
 20
8.8501674173211224
 30
0.0
 11
38.005875838420202
 21
8.5212812198128827
 31
0.0
  0
LINE
  5
12A9
  8
0
 10
35.788323125579112
 20
8.9131674173211231
 30
0.0
 11
38.042071564410527
 21
8.5796104647468532
 31
0.0
  0
LINE
  5
12AB
  8
0
 10
35.783686348838671
 20
8.0131674173211263
 30
0.0
 11
37.34978407996158
 21
7.5210790226626267
 31
0.0
  0
LINE
  5
12AC
  8
0
 10
35.793351124562101
 20
8.0761674173211233
 30
0.0
 11
37.386842278315221
 21
7.575471650914098
 31
0.0
  0
LINE
  5
12AD
  8
0
 10
35.719686348838657
 20
8.8501674173211224
 30
0.0
 11
35.719686348838657
 21
8.0761674173211233
 31
0.0
  0
LINE
  5
12AE
  8
0
 10
35.783686348838657
 20
8.8501674173211224
 30
0.0
 11
35.783686348838671
 21
8.0761674173211233
 31
0.0
  0
POLYLINE
  5
12AF
  8
0
 66
     1
 10
0.0
 20
0.0
 30
0.0
  0
VERTEX
  5
261A
  8
0
 10
36.854414117152693
 20
7.6767307453593201
 30
0.0
  0
VERTEX
  5
261B
  8
0
 10
36.378268530823028
 20
7.0106650476456878
 30
0.0
  0
VERTEX
  5
261C
  8
0
 10
36.03770124703113
 20
6.5620979642885526
 30
0.0
  0
VERTEX
  5
261D
  8
0
 10
35.936223271115189
 20
6.4462167966839763
 30
0.0
  0
SEQEND
  5
261E
  8
0
  0
LINE
  5
12B2
  8
0
 10
22.476686348838669
 20
1.147978879075914
 30
0.0
 11
30.87480035036856
 21
1.147978879075914
 31
0.0
  0
LINE
  5
12B7
  8
0
 10
29.976686348838669
 20
6.0881674173211211
 30
0.0
 11
30.319686348838669
 21
6.4617995893834301
 31
0.0
  0
LINE
  5
12B8
  8
0
 10
30.383686348838669
 20
6.461799589383431
 30
0.0
 11
30.726686348838669
 21
6.0881674173211211
 31
0.0
  0
LINE
  5
12BA
  8
0
 10
30.726686348838669
 20
10.37476741732112
 30
0.0
 11
30.383686348838658
 21
10.001135245258819
 31
0.0
  0
LINE
  5
12BB
  8
0
 10
29.976686348838669
 20
10.374767417321131
 30
0.0
 11
30.319686348838669
 21
10.001135245258819
 31
0.0
  0
LINE
  5
12BC
  8
0
 10
14.976686348838671
 20
10.374767417321131
 30
0.0
 11
14.633686348838671
 21
10.001135245258819
 31
0.0
  0
LINE
  5
12BD
  8
0
 10
14.226686348838671
 20
10.37476741732112
 30
0.0
 11
14.569686348838671
 21
10.001135245258819
 31
0.0
  0
LINE
  5
12C2
  8
0
 10
31.271108701558919
 20
-1.7334226230846881
 30
0.0
 11
32.100074544916659
 21
0.7815459422610404
 31
0.0
  0
POLYLINE
  5
12C5
  8
0
 66
     1
 10
0.0
 20
0.0
 30
0.0
 70
   132
 75
     6
  0
VERTEX
  5
12C6
  8
0
 10
35.463282877845529
 20
-2.432118319132456
 30
0.0
 70
    16
  0
VERTEX
  5
12DC
  8
0
 10
35.463282877845529
 20
-2.432118319132456
 30
0.0
 70
     8
  0
VERTEX
  5
12DD
  8
0
 10
35.454520454226412
 20
-2.2191576198764311
 30
0.0
 70
     8
  0
VERTEX
  5
12DE
  8
0
 10
35.44691741933719
 20
-2.0440310788047671
 30
0.0
 70
     8
  0
VERTEX
  5
12DF
  8
0
 10
35.440239476776902
 20
-1.9015396576854151
 30
0.0
 70
     8
  0
VERTEX
  5
12E0
  8
0
 10
35.434252330144567
 20
-1.7864843182863259
 30
0.0
 70
     8
  0
VERTEX
  5
12E1
  8
0
 10
35.428721683039207
 20
-1.693666022375454
 30
0.0
 70
     8
  0
VERTEX
  5
12E2
  8
0
 10
35.423413239059848
 20
-1.617885731720746
 30
0.0
 70
     8
  0
VERTEX
  5
12E3
  8
0
 10
35.418092701805527
 20
-1.5539444080901561
 30
0.0
 70
     8
  0
VERTEX
  5
12E4
  8
0
 10
35.412525774875213
 20
-1.4966430132516371
 30
0.0
 70
     8
  0
VERTEX
  5
12E5
  8
0
 10
35.40651053512628
 20
-1.441555624271011
 30
0.0
 70
     8
  0
VERTEX
  5
12E6
  8
0
 10
35.399974552449038
 20
-1.3873487794056001
 30
0.0
 70
     8
  0
VERTEX
  5
12E7
  8
0
 10
35.392877769992197
 20
-1.3334621322105971
 30
0.0
 70
     8
  0
VERTEX
  5
12E8
  8
0
 10
35.385180130904402
 20
-1.2793353362411981
 30
0.0
 70
     8
  0
VERTEX
  5
12E9
  8
0
 10
35.376841578334293
 20
-1.224408045052596
 30
0.0
 70
     8
  0
VERTEX
  5
12EA
  8
0
 10
35.367822055430523
 20
-1.168119912199985
 30
0.0
 70
     8
  0
VERTEX
  5
12EB
  8
0
 10
35.358081505341758
 20
-1.1099105912385601
 30
0.0
 70
     8
  0
VERTEX
  5
12EC
  8
0
 10
35.347579871216674
 20
-1.049219735723514
 30
0.0
 70
     8
  0
VERTEX
  5
12ED
  8
0
 10
35.336287110400662
 20
-0.9856671105757984
 30
0.0
 70
     8
  0
VERTEX
  5
12EE
  8
0
 10
35.3242132370261
 20
-0.9195929261793855
 30
0.0
 70
     8
  0
VERTEX
  5
12EF
  8
0
 10
35.311378279422172
 20
-0.8515175042840079
 30
0.0
 70
     8
  0
VERTEX
  5
12F0
  8
0
 10
35.297802265918023
 20
-0.7819611666393969
 30
0.0
 70
     8
  0
VERTEX
  5
12F1
  8
0
 10
35.28350522484277
 20
-0.7114442349952822
 30
0.0
 70
     8
  0
VERTEX
  5
12F2
  8
0
 10
35.268507184525632
 20
-0.6404870311013955
 30
0.0
 70
     8
  0
VERTEX
  5
12F3
  8
0
 10
35.25282817329569
 20
-0.5696098767074674
 30
0.0
 70
     8
  0
VERTEX
  5
12F4
  8
0
 10
35.236488219482162
 20
-0.4993330935632291
 30
0.0
 70
     8
  0
VERTEX
  5
12F5
  8
0
 10
35.219507351478491
 20
-0.4300869477309574
 30
0.0
 70
     8
  0
VERTEX
  5
12F6
  8
0
 10
35.201905597935593
 20
-0.3619414825231166
 30
0.0
 70
     8
  0
VERTEX
  5
12F7
  8
0
 10
35.183702987568687
 20
-0.2948766855647168
 30
0.0
 70
     8
  0
VERTEX
  5
12F8
  8
0
 10
35.164919549093021
 20
-0.2288725444807684
 30
0.0
 70
     8
  0
VERTEX
  5
12F9
  8
0
 10
35.145575311223801
 20
-0.1639090468962817
 30
0.0
 70
     8
  0
VERTEX
  5
12FA
  8
0
 10
35.12569030267629
 20
-0.0999661804362671
 30
0.0
 70
     8
  0
VERTEX
  5
12FB
  8
0
 10
35.105284552165692
 20
-0.0370239327257348
 30
0.0
 70
     8
  0
VERTEX
  5
12FC
  8
0
 10
35.08437808840727
 20
0.0249377086103048
 30
0.0
 70
     8
  0
VERTEX
  5
12FD
  8
0
 10
35.062960897268589
 20
0.0860121346551368
 30
0.0
 70
     8
  0
VERTEX
  5
12FE
  8
0
 10
35.040902793226749
 20
0.1465862513252277
 30
0.0
 70
     8
  0
VERTEX
  5
12FF
  8
0
 10
35.018043547911113
 20
0.2071203432453394
 30
0.0
 70
     8
  0
VERTEX
  5
1300
  8
0
 10
34.994222932951153
 20
0.2680746950402337
 30
0.0
 70
     8
  0
VERTEX
  5
1301
  8
0
 10
34.96928071997629
 20
0.3299095913346726
 30
0.0
 70
     8
  0
VERTEX
  5
1302
  8
0
 10
34.943056680615918
 20
0.393085316753418
 30
0.0
 70
     8
  0
VERTEX
  5
1303
  8
0
 10
34.915390586499477
 20
0.4580621559212317
 30
0.0
 70
     8
  0
VERTEX
  5
1304
  8
0
 10
34.88612220925642
 20
0.5253003934628758
 30
0.0
 70
     8
  0
VERTEX
  5
1305
  8
0
 10
34.855144729940811
 20
0.5950601902532151
 30
0.0
 70
     8
  0
VERTEX
  5
1306
  8
0
 10
34.822564967305503
 20
0.6668012121675299
 30
0.0
 70
     8
  0
VERTEX
  5
1307
  8
0
 10
34.78854314952806
 20
0.7397830013312025
 30
0.0
 70
     8
  0
VERTEX
  5
1308
  8
0
 10
34.753239504786002
 20
0.8132650998696162
 30
0.0
 70
     8
  0
VERTEX
  5
1309
  8
0
 10
34.716814261256879
 20
0.8865070499081543
 30
0.0
 70
     8
  0
VERTEX
  5
130A
  8
0
 10
34.679427647118203
 20
0.9587683935721996
 30
0.0
 70
     8
  0
VERTEX
  5
130B
  8
0
 10
34.641239890547531
 20
1.029308672987133
 30
0.0
 70
     8
  0
VERTEX
  5
130C
  8
0
 10
34.602411219722377
 20
1.0973874302783431
 30
0.0
 70
     8
  0
VERTEX
  5
130D
  8
0
 10
34.563128567613091
 20
1.162367604860288
 30
0.0
 70
     8
  0
VERTEX
  5
130E
  8
0
 10
34.523685686361048
 20
1.2240257253037621
 30
0.0
 70
     8
  0
VERTEX
  5
130F
  8
0
 10
34.484403032900467
 20
1.282241717468632
 30
0.0
 70
     8
  0
VERTEX
  5
1310
  8
0
 10
34.445601064165537
 20
1.336895507214769
 30
0.0
 70
     8
  0
VERTEX
  5
1311
  8
0
 10
34.407600237090442
 20
1.387867020402046
 30
0.0
 70
     8
  0
VERTEX
  5
1312
  8
0
 10
34.370721008609401
 20
1.4350361828903331
 30
0.0
 70
     8
  0
VERTEX
  5
1313
  8
0
 10
34.335283835656561
 20
1.4782829205394981
 30
0.0
 70
     8
  0
VERTEX
  5
1314
  8
0
 10
34.301609175166163
 20
1.517487159209415
 30
0.0
 70
     8
  0
VERTEX
  5
1315
  8
0
 10
34.269934031735701
 20
1.552625551202466
 30
0.0
 70
     8
  0
VERTEX
  5
1316
  8
0
 10
34.240161600616069
 20
1.584061654591093
 30
0.0
 70
     8
  0
VERTEX
  5
1317
  8
0
 10
34.212111624721402
 20
1.612255753890248
 30
0.0
 70
     8
  0
VERTEX
  5
1318
  8
0
 10
34.185603846965947
 20
1.6376681336148831
 30
0.0
 70
     8
  0
VERTEX
  5
1319
  8
0
 10
34.160458010263874
 20
1.6607590782799531
 30
0.0
 70
     8
  0
VERTEX
  5
131A
  8
0
 10
34.136493857529359
 20
1.6819888724004111
 30
0.0
 70
     8
  0
VERTEX
  5
131B
  8
0
 10
34.113531131676623
 20
1.701817800491211
 30
0.0
 70
     8
  0
VERTEX
  5
131C
  8
0
 10
34.091389575619829
 20
1.7207061470673071
 30
0.0
 70
     8
  0
VERTEX
  5
131D
  8
0
 10
34.06988225616346
 20
1.739040817935354
 30
0.0
 70
     8
  0
VERTEX
  5
131E
  8
0
 10
34.048795535673129
 20
1.7569152040688321
 30
0.0
 70
     8
  0
VERTEX
  5
131F
  8
0
 10
34.027909100404713
 20
1.7743493177329199
 30
0.0
 70
     8
  0
VERTEX
  5
1320
  8
0
 10
34.007002636614111
 20
1.7913631711928011
 30
0.0
 70
     8
  0
VERTEX
  5
1321
  8
0
 10
33.985855830557199
 20
1.807976776713655
 30
0.0
 70
     8
  0
VERTEX
  5
1322
  8
0
 10
33.964248368489869
 20
1.824210146560663
 30
0.0
 70
     8
  0
VERTEX
  5
1323
  8
0
 10
33.94195993666802
 20
1.8400832929990061
 30
0.0
 70
     8
  0
VERTEX
  5
1324
  8
0
 10
33.918770221347522
 20
1.8556162282938651
 30
0.0
 70
     8
  0
VERTEX
  5
1325
  8
0
 10
33.894542360960067
 20
1.8708156231819999
 30
0.0
 70
     8
  0
VERTEX
  5
1326
  8
0
 10
33.869473302640571
 20
1.885634782286483
 30
0.0
 70
     8
  0
VERTEX
  5
1327
  8
0
 10
33.843843445699683
 20
1.900013668701958
 30
0.0
 70
     8
  0
VERTEX
  5
1328
  8
0
 10
33.817933189448091
 20
1.913892245523074
 30
0.0
 70
     8
  0
VERTEX
  5
1329
  8
0
 10
33.79202293319652
 20
1.927210475844481
 30
0.0
 70
     8
  0
VERTEX
  5
132A
  8
0
 10
33.766393076255632
 20
1.939908322760826
 30
0.0
 70
     8
  0
VERTEX
  5
132B
  8
0
 10
33.741324017936122
 20
1.951925749366757
 30
0.0
 70
     8
  0
VERTEX
  5
132C
  8
0
 10
33.717096157548681
 20
1.9632027187569221
 30
0.0
 70
     8
  0
VERTEX
  5
132D
  8
0
 10
33.693909780315217
 20
1.9736971480772401
 30
0.0
 70
     8
  0
VERTEX
  5
132E
  8
0
 10
33.671644715102587
 20
1.98343877067872
 30
0.0
 70
     8
  0
VERTEX
  5
132F
  8
0
 10
33.650100676688872
 20
1.99247527396364
 30
0.0
 70
     8
  0
VERTEX
  5
1330
  8
0
 10
33.629077379852141
 20
2.000854345334282
 30
0.0
 70
     8
  0
VERTEX
  5
1331
  8
0
 10
33.608374539370502
 20
2.008623672192924
 30
0.0
 70
     8
  0
VERTEX
  5
1332
  8
0
 10
33.587791870022009
 20
2.015830941941847
 30
0.0
 70
     8
  0
VERTEX
  5
1333
  8
0
 10
33.567129086584728
 20
2.0225238419833311
 30
0.0
 70
     8
  0
VERTEX
  5
1334
  8
0
 10
33.546185903836772
 20
2.0287500597196519
 30
0.0
 70
     8
  0
VERTEX
  5
1335
  8
0
 10
33.524802093600577
 20
2.034535497084164
 30
0.0
 70
     8
  0
VERTEX
  5
1336
  8
0
 10
33.502977655876187
 20
2.0398189141345
 30
0.0
 70
     8
  0
VERTEX
  5
1337
  8
0
 10
33.480752647707952
 20
2.0445172854593641
 30
0.0
 70
     8
  0
VERTEX
  5
1338
  8
0
 10
33.458167126140239
 20
2.04854758564746
 30
0.0
 70
     8
  0
VERTEX
  5
1339
  8
0
 10
33.435261148217471
 20
2.0518267892874951
 30
0.0
 70
     8
  0
VERTEX
  5
133A
  8
0
 10
33.412074770984013
 20
2.05427187096817
 30
0.0
 70
     8
  0
VERTEX
  5
133B
  8
0
 10
33.388648051484239
 20
2.0557998052781929
 30
0.0
 70
     8
  0
VERTEX
  5
133C
  8
0
 10
33.365021046762557
 20
2.0563275668062659
 30
0.0
 70
     8
  0
VERTEX
  5
133D
  8
0
 10
33.341203771047873
 20
2.055786463694866
 30
0.0
 70
     8
  0
VERTEX
  5
133E
  8
0
 10
33.317086067307272
 20
2.0541651383015589
 30
0.0
 70
     8
  0
VERTEX
  5
133F
  8
0
 10
33.29252773569236
 20
2.0514665665376821
 30
0.0
 70
     8
  0
VERTEX
  5
1340
  8
0
 10
33.267388576354762
 20
2.047693724314569
 30
0.0
 70
     8
  0
VERTEX
  5
1341
  8
0
 10
33.241528389446081
 20
2.0428495875435591
 30
0.0
 70
     8
  0
VERTEX
  5
1342
  8
0
 10
33.214806975117952
 20
2.036937132135991
 30
0.0
 70
     8
  0
VERTEX
  5
1343
  8
0
 10
33.187084133521978
 20
2.0299593340031969
 30
0.0
 70
     8
  0
VERTEX
  5
1344
  8
0
 10
33.158219664809771
 20
2.021919169056519
 30
0.0
 70
     8
  0
VERTEX
  5
1345
  8
0
 10
33.128163497579337
 20
2.0128411878841721
 30
0.0
 70
     8
  0
VERTEX
  5
1346
  8
0
 10
33.09722607421422
 20
2.0028362397819022
 30
0.0
 70
     8
  0
VERTEX
  5
1347
  8
0
 10
33.065807965544323
 20
1.992036748722336
 30
0.0
 70
     8
  0
VERTEX
  5
1348
  8
0
 10
33.034309742399593
 20
1.980575138678103
 30
0.0
 70
     8
  0
VERTEX
  5
1349
  8
0
 10
33.003131975609911
 20
1.9685838336218291
 30
0.0
 70
     8
  0
VERTEX
  5
134A
  8
0
 10
32.972675236005237
 20
1.956195257526143
 30
0.0
 70
     8
  0
VERTEX
  5
134B
  8
0
 10
32.943340094415483
 20
1.9435418343636679
 30
0.0
 70
     8
  0
VERTEX
  5
134C
  8
0
 10
32.91552712167055
 20
1.9307559881070351
 30
0.0
 70
     8
  0
VERTEX
  5
134D
  8
0
 10
32.889523393544771
 20
1.917928059655172
 30
0.0
 70
     8
  0
VERTEX
  5
134E
  8
0
 10
32.865162005590022
 20
1.904980057612224
 30
0.0
 70
     8
  0
VERTEX
  5
134F
  8
0
 10
32.84216255830259
 20
1.891791907508632
 30
0.0
 70
     8
  0
VERTEX
  5
1350
  8
0
 10
32.820244652178687
 20
1.8782435348748441
 30
0.0
 70
     8
  0
VERTEX
  5
1351
  8
0
 10
32.799127887714661
 20
1.864214865241304
 30
0.0
 70
     8
  0
VERTEX
  5
1352
  8
0
 10
32.778531865406727
 20
1.8495858241384591
 30
0.0
 70
     8
  0
VERTEX
  5
1353
  8
0
 10
32.758176185751203
 20
1.834236337096752
 30
0.0
 70
     8
  0
VERTEX
  5
1354
  8
0
 10
32.737780449244319
 20
1.8180463296466289
 30
0.0
 70
     8
  0
VERTEX
  5
1355
  8
0
 10
32.717121003894079
 20
1.800925745935924
 30
0.0
 70
     8
  0
VERTEX
  5
1356
  8
0
 10
32.696201187755349
 20
1.782904604582026
 30
0.0
 70
     8
  0
VERTEX
  5
1357
  8
0
 10
32.675081086394691
 20
1.7640429428197111
 30
0.0
 70
     8
  0
VERTEX
  5
1358
  8
0
 10
32.653820785378691
 20
1.744400797883759
 30
0.0
 70
     8
  0
VERTEX
  5
1359
  8
0
 10
32.632480370273932
 20
1.7240382070089451
 30
0.0
 70
     8
  0
VERTEX
  5
135A
  8
0
 10
32.611119926646971
 20
1.7030152074300471
 30
0.0
 70
     8
  0
VERTEX
  5
135B
  8
0
 10
32.589799540064412
 20
1.6813918363818421
 30
0.0
 70
     8
  0
VERTEX
  5
135C
  8
0
 10
32.5685792960928
 20
1.659228131099109
 30
0.0
 70
     8
  0
VERTEX
  5
135D
  8
0
 10
32.547484230352708
 20
1.6365024116279001
 30
0.0
 70
     8
  0
VERTEX
  5
135E
  8
0
 10
32.526399178680677
 20
1.612866129259374
 30
0.0
 70
     8
  0
VERTEX
  5
135F
  8
0
 10
32.505173926967231
 20
1.5878890180959671
 30
0.0
 70
     8
  0
VERTEX
  5
1360
  8
0
 10
32.48365826110286
 20
1.561140812240116
 30
0.0
 70
     8
  0
VERTEX
  5
1361
  8
0
 10
32.461701966978119
 20
1.532191245794253
 30
0.0
 70
     8
  0
VERTEX
  5
1362
  8
0
 10
32.439154830483503
 20
1.5006100528608151
 30
0.0
 70
     8
  0
VERTEX
  5
1363
  8
0
 10
32.415866637509538
 20
1.4659669675422391
 30
0.0
 70
     8
  0
VERTEX
  5
1364
  8
0
 10
32.391687173946757
 20
1.4278317239409559
 30
0.0
 70
     8
  0
VERTEX
  5
1365
  8
0
 10
32.366372347782949
 20
1.385454028372326
 30
0.0
 70
     8
  0
VERTEX
  5
1366
  8
0
 10
32.339302555395022
 20
1.336803476003386
 30
0.0
 70
     8
  0
VERTEX
  5
1367
  8
0
 10
32.309764315257212
 20
1.2795296342141
 30
0.0
 70
     8
  0
VERTEX
  5
1368
  8
0
 10
32.277044145843682
 20
1.211282070384426
 30
0.0
 70
     8
  0
VERTEX
  5
1369
  8
0
 10
32.240428565628662
 20
1.129710351894325
 30
0.0
 70
     8
  0
VERTEX
  5
136A
  8
0
 10
32.199204093086358
 20
1.0324640461237591
 30
0.0
 70
     8
  0
VERTEX
  5
136B
  8
0
 10
32.152657246690957
 20
0.9171927204526896
 30
0.0
 70
     8
  0
VERTEX
  5
136C
  8
0
 10
32.10007454491668
 20
0.7815459422610749
 30
0.0
 70
     8
  0
VERTEX
  5
12C7
  8
0
 10
35.438162299753792
 20
-1.809156209553201
 30
0.0
 70
    16
  0
VERTEX
  5
12C8
  8
0
 10
35.417653093029159
 20
-1.4812735139447479
 30
0.0
 70
    16
  0
VERTEX
  5
12C9
  8
0
 10
35.356125374018603
 20
-1.081666466373397
 30
0.0
 70
    16
  0
VERTEX
  5
12CA
  8
0
 10
35.243324638196491
 20
-0.4873790349027445
 30
0.0
 70
    16
  0
VERTEX
  5
12CB
  8
0
 10
35.089505390088419
 20
0.0351840446050034
 30
0.0
 70
    16
  0
VERTEX
  5
12CC
  8
0
 10
34.904922331893431
 20
0.49626910814456
 30
0.0
 70
    16
  0
VERTEX
  5
12CD
  8
0
 10
34.60753853787633
 20
1.1315418835940101
 30
0.0
 70
    16
  0
VERTEX
  5
12CE
  8
0
 10
34.27939083493559
 20
1.561887939149456
 30
0.0
 70
    16
  0
VERTEX
  5
12CF
  8
0
 10
34.084553173378282
 20
1.7258293150646571
 30
0.0
 70
    16
  0
VERTEX
  5
12D0
  8
0
 10
33.930733925270211
 20
1.8590316829957541
 30
0.0
 70
    16
  0
VERTEX
  5
12D1
  8
0
 10
33.705132453625971
 20
1.9717413227155161
 30
0.0
 70
    16
  0
VERTEX
  5
12D2
  8
0
 10
33.551313205517928
 20
2.033219338683713
 30
0.0
 70
    16
  0
VERTEX
  5
12D3
  8
0
 10
33.36673014732294
 20
2.0678816808675431
 30
0.0
 70
    16
  0
VERTEX
  5
12D4
  8
0
 10
33.171892485765639
 20
2.033219338683713
 30
0.0
 70
    16
  0
VERTEX
  5
12D5
  8
0
 10
32.895017898473142
 20
1.930755978736711
 30
0.0
 70
    16
  0
VERTEX
  5
12D6
  8
0
 10
32.741198650365092
 20
1.828292675011653
 30
0.0
 70
    16
  0
VERTEX
  5
12D7
  8
0
 10
32.566870195532402
 20
1.6643512990964591
 30
0.0
 70
    16
  0
VERTEX
  5
12D8
  8
0
 10
32.40279634406204
 20
1.469670915197163
 30
0.0
 70
    16
  0
VERTEX
  5
12D9
  8
0
 10
32.24897709595399
 20
1.172527227572806
 30
0.0
 70
    16
  0
VERTEX
  5
12DA
  8
0
 10
32.10007454491668
 20
0.7815459422610749
 30
0.0
 70
    16
  0
SEQEND
  5
12DB
  8
0
  0
LINE
  5
136F
  8
0
 10
31.3958701167649
 20
-1.754216192285684
 30
0.0
 11
32.49212277114281
 21
1.57166386360391
 31
0.0
  0
LINE
  5
1404
  8
0
 10
32.836823705184038
 20
1.396999250050432
 30
0.0
 11
32.194204376040013
 21
0.6678203521669647
 31
0.0
  0
LINE
  5
148C
  8
0
 10
33.325711635037003
 20
1.6770963729342661
 30
0.0
 11
33.325711635037003
 21
-1.9491322259498221
 31
0.0
  0
LINE
  5
148E
  8
0
 10
33.45071163503701
 20
1.665912907056696
 30
0.0
 11
33.450711635037003
 21
-1.969965559283156
 31
0.0
  0
LINE
  5
1491
  8
0
 10
31.860718395389259
 20
-0.3439303309769457
 30
0.0
 11
33.325711635037003
 21
-0.3439303309769456
 31
0.0
  0
LINE
  5
1492
  8
0
 10
31.901919996016598
 20
-0.2189303309769456
 30
0.0
 11
33.325711635037003
 21
-0.2189303309769457
 31
0.0
  0
POLYLINE
  5
149A
  8
0
 66
     1
 10
0.0
 20
0.0
 30
0.0
  0
VERTEX
  5
261F
  8
0
 10
35.08537402398899
 20
-2.369133510156364
 30
0.0
  0
VERTEX
  5
2620
  8
0
 10
35.079854941149122
 20
-2.2349985046010241
 30
0.0
  0
VERTEX
  5
2621
  8
0
 10
35.07229833326155
 20
-2.0609413523102211
 30
0.0
  0
VERTEX
  5
2622
  8
0
 10
35.065695904477572
 20
-1.9200612156851879
 30
0.0
  0
VERTEX
  5
2623
  8
0
 10
35.059832348947808
 20
-1.8073809335756441
 30
0.0
  0
VERTEX
  5
2624
  8
0
 10
35.05450184690357
 20
-1.717921579783755
 30
0.0
  0
VERTEX
  5
2625
  8
0
 10
35.049501351980503
 20
-1.6465373925980811
 30
0.0
  0
VERTEX
  5
2626
  8
0
 10
35.044599243825118
 20
-1.587624679642329
 30
0.0
  0
VERTEX
  5
2627
  8
0
 10
35.039499097961027
 20
-1.5351279475041131
 30
0.0
  0
VERTEX
  5
2628
  8
0
 10
35.033954991170297
 20
-1.4843551803198991
 30
0.0
  0
VERTEX
  5
2629
  8
0
 10
35.02791687497902
 20
-1.434277442384551
 30
0.0
  0
VERTEX
  5
262A
  8
0
 10
35.021340880710511
 20
-1.3843451969960421
 30
0.0
  0
VERTEX
  5
262B
  8
0
 10
35.014163731304109
 20
-1.3338782814742001
 30
0.0
  0
VERTEX
  5
262C
  8
0
 10
35.006321048307733
 20
-1.2822173572286191
 30
0.0
  0
VERTEX
  5
262D
  8
0
 10
34.997750676867611
 20
-1.2287322437293151
 30
0.0
  0
VERTEX
  5
262E
  8
0
 10
34.988395414529272
 20
-1.172825394201473
 30
0.0
  0
VERTEX
  5
262F
  8
0
 10
34.97821524656802
 20
-1.113992350172706
 30
0.0
  0
VERTEX
  5
2630
  8
0
 10
34.96723082826415
 20
-1.052174993876503
 30
0.0
  0
VERTEX
  5
2631
  8
0
 10
34.95551073857041
 20
-0.9880368881052527
 30
0.0
  0
VERTEX
  5
2632
  8
0
 10
34.94309330516041
 20
-0.9221759757182688
 30
0.0
  0
VERTEX
  5
2633
  8
0
 10
34.930008732833663
 20
-0.855137523641201
 30
0.0
  0
VERTEX
  5
2634
  8
0
 10
34.916290841984377
 20
-0.7874771199094615
 30
0.0
  0
VERTEX
  5
2635
  8
0
 10
34.901978075715242
 20
-0.719762014937794
 30
0.0
  0
VERTEX
  5
2636
  8
0
 10
34.887115040675837
 20
-0.6525734904956659
 30
0.0
  0
VERTEX
  5
2637
  8
0
 10
34.871742032827157
 20
-0.5864554615719246
 30
0.0
  0
VERTEX
  5
2638
  8
0
 10
34.855847332550802
 20
-0.5216385904285433
 30
0.0
  0
VERTEX
  5
2639
  8
0
 10
34.839396970314347
 20
-0.4579507547416945
 30
0.0
  0
VERTEX
  5
263A
  8
0
 10
34.822396605750981
 20
-0.3953154527338504
 30
0.0
  0
VERTEX
  5
263B
  8
0
 10
34.804864246613349
 20
-0.3337075470486012
 30
0.0
  0
VERTEX
  5
263C
  8
0
 10
34.786817640233352
 20
-0.2731018680913185
 30
0.0
  0
VERTEX
  5
263D
  8
0
 10
34.76827427474057
 20
-0.2134732317449634
 30
0.0
  0
VERTEX
  5
263E
  8
0
 10
34.749251382023509
 20
-0.1547964570315317
 30
0.0
  0
VERTEX
  5
263F
  8
0
 10
34.729769714943536
 20
-0.0970575643050896
 30
0.0
  0
VERTEX
  5
2640
  8
0
 10
34.709829895691414
 20
-0.0401960922112084
 30
0.0
  0
VERTEX
  5
2641
  8
0
 10
34.689298491491762
 20
0.0161855293021689
 30
0.0
  0
VERTEX
  5
2642
  8
0
 10
34.667983977236837
 20
0.0726289834637074
 30
0.0
  0
VERTEX
  5
2643
  8
0
 10
34.645687721065471
 20
0.1296826676218998
 30
0.0
  0
VERTEX
  5
2644
  8
0
 10
34.622211970275117
 20
0.1878820189391955
 30
0.0
  0
VERTEX
  5
2645
  8
0
 10
34.597362938467171
 20
0.2477452455324686
 30
0.0
  0
VERTEX
  5
2646
  8
0
 10
34.570953223998607
 20
0.3097713400823646
 30
0.0
  0
VERTEX
  5
2647
  8
0
 10
34.54283492640301
 20
0.3743674998659098
 30
0.0
  0
VERTEX
  5
2648
  8
0
 10
34.513054153062889
 20
0.4414323722301105
 30
0.0
  0
VERTEX
  5
2649
  8
0
 10
34.481894387950788
 20
0.5100465428358108
 30
0.0
  0
VERTEX
  5
264A
  8
0
 10
34.449583233621112
 20
0.5793587079984726
 30
0.0
  0
VERTEX
  5
264B
  8
0
 10
34.416333042856593
 20
0.6485666838896701
 30
0.0
  0
VERTEX
  5
264C
  8
0
 10
34.382377472630267
 20
0.7168427456834025
 30
0.0
  0
VERTEX
  5
264D
  8
0
 10
34.34797887959143
 20
0.7833288025357346
 30
0.0
  0
VERTEX
  5
264E
  8
0
 10
34.313440097401411
 20
0.8471287102843103
 30
0.0
  0
VERTEX
  5
264F
  8
0
 10
34.279029600534599
 20
0.9074610321146195
 30
0.0
  0
VERTEX
  5
2650
  8
0
 10
34.244672045359607
 20
0.9642942603617241
 30
0.0
  0
VERTEX
  5
2651
  8
0
 10
34.210266105735208
 20
1.0180785048690411
 30
0.0
  0
VERTEX
  5
2652
  8
0
 10
34.176046788728549
 20
1.0687907484486701
 30
0.0
  0
VERTEX
  5
2653
  8
0
 10
34.142350955702987
 20
1.116252385925891
 30
0.0
  0
VERTEX
  5
2654
  8
0
 10
34.109527620716023
 20
1.1602791922065121
 30
0.0
  0
VERTEX
  5
2655
  8
0
 10
34.077942052821648
 20
1.2006776724800201
 30
0.0
  0
VERTEX
  5
2656
  8
0
 10
34.04798291219339
 20
1.237239141327152
 30
0.0
  0
VERTEX
  5
2657
  8
0
 10
34.020067722822319
 20
1.2697381696968999
 30
0.0
  0
VERTEX
  5
2658
  8
0
 10
33.994488516578663
 20
1.2981141162126331
 30
0.0
  0
VERTEX
  5
2659
  8
0
 10
33.9710631410424
 20
1.322848492935714
 30
0.0
  0
VERTEX
  5
265A
  8
0
 10
33.94939659113323
 20
1.344626367608535
 30
0.0
  0
VERTEX
  5
265B
  8
0
 10
33.928998325171932
 20
1.3641817028431591
 30
0.0
  0
VERTEX
  5
265C
  8
0
 10
33.909284968929697
 20
1.382284103791074
 30
0.0
  0
VERTEX
  5
265D
  8
0
 10
33.889605573175047
 20
1.399718040426128
 30
0.0
  0
VERTEX
  5
265E
  8
0
 10
33.869295793404888
 20
1.4172560786009161
 30
0.0
  0
VERTEX
  5
265F
  8
0
 10
33.848061439595881
 20
1.435370516133464
 30
0.0
  0
VERTEX
  5
2660
  8
0
 10
33.82700223164948
 20
1.4533231785850691
 30
0.0
  0
VERTEX
  5
2661
  8
0
 10
33.807400862293314
 20
1.4699384908038431
 30
0.0
  0
VERTEX
  5
2662
  8
0
 10
33.789397705850028
 20
1.484965903175129
 30
0.0
  0
VERTEX
  5
2663
  8
0
 10
33.772800628013428
 20
1.4984727426388691
 30
0.0
  0
VERTEX
  5
2664
  8
0
 10
33.757371882469442
 20
1.5105940573877561
 30
0.0
  0
VERTEX
  5
2665
  8
0
 10
33.742821098135053
 20
1.5215258485869281
 30
0.0
  0
VERTEX
  5
2666
  8
0
 10
33.72880196561254
 20
1.531509850388717
 30
0.0
  0
VERTEX
  5
2667
  8
0
 10
33.71473522931845
 20
1.5409320318017281
 30
0.0
  0
VERTEX
  5
2668
  8
0
 10
33.699451459804251
 20
1.5505203340500791
 30
0.0
  0
VERTEX
  5
2669
  8
0
 10
33.682295600875619
 20
1.5606617362438571
 30
0.0
  0
VERTEX
  5
266A
  8
0
 10
33.663554077917347
 20
1.5711761230580901
 30
0.0
  0
VERTEX
  5
266B
  8
0
 10
33.643671758654989
 20
1.58182589404397
 30
0.0
  0
VERTEX
  5
266C
  8
0
 10
33.623058788406411
 20
1.592421246043318
 30
0.0
  0
VERTEX
  5
266D
  8
0
 10
33.602097287530391
 20
1.602806240773273
 30
0.0
  0
VERTEX
  5
266E
  8
0
 10
33.581146149145717
 20
1.612849648253502
 30
0.0
  0
VERTEX
  5
266F
  8
0
 10
33.560655743985812
 20
1.622387001865623
 30
0.0
  0
VERTEX
  5
2670
  8
0
 10
33.541431739776989
 20
1.631088014162273
 30
0.0
  0
VERTEX
  5
2671
  8
0
 10
33.523954046578531
 20
1.638735020333504
 30
0.0
  0
VERTEX
  5
2672
  8
0
 10
33.508145388109263
 20
1.6453658567368039
 30
0.0
  0
VERTEX
  5
2673
  8
0
 10
33.493765365333317
 20
1.6510971765239351
 30
0.0
  0
VERTEX
  5
2674
  8
0
 10
33.480514065699211
 20
1.656070101773033
 30
0.0
  0
VERTEX
  5
2675
  8
0
 10
33.468031087130548
 20
1.660441167172326
 30
0.0
  0
VERTEX
  5
2676
  8
0
 10
33.45590393478934
 20
1.664369283568357
 30
0.0
  0
VERTEX
  5
2677
  8
0
 10
33.443771362215962
 20
1.6679761870391741
 30
0.0
  0
VERTEX
  5
2678
  8
0
 10
33.431700502045743
 20
1.671241985074196
 30
0.0
  0
VERTEX
  5
2679
  8
0
 10
33.420062551017331
 20
1.674059384068435
 30
0.0
  0
VERTEX
  5
267A
  8
0
 10
33.409015774965312
 20
1.676394674811279
 30
0.0
  0
VERTEX
  5
267B
  8
0
 10
33.398639718809306
 20
1.6782462424605751
 30
0.0
  0
VERTEX
  5
267C
  8
0
 10
33.389010271066411
 20
1.6796247874061989
 30
0.0
  0
VERTEX
  5
267D
  8
0
 10
33.380195413852491
 20
1.680554343829548
 30
0.0
  0
VERTEX
  5
267E
  8
0
 10
33.372250189203477
 20
1.681072546189984
 30
0.0
  0
VERTEX
  5
267F
  8
0
 10
33.365092600542681
 20
1.68123242680005
 30
0.0
  0
VERTEX
  5
2680
  8
0
 10
33.35804717616066
 20
1.681072362269584
 30
0.0
  0
VERTEX
  5
2681
  8
0
 10
33.350157282314747
 20
1.680541959981686
 30
0.0
  0
VERTEX
  5
2682
  8
0
 10
33.340854646413241
 20
1.6795197476031281
 30
0.0
  0
VERTEX
  5
2683
  8
0
 10
33.3297591481886
 20
1.6778545541244521
 30
0.0
  0
VERTEX
  5
2684
  8
0
 10
33.316577470679221
 20
1.6753853589499439
 30
0.0
  0
VERTEX
  5
2685
  8
0
 10
33.301098007583761
 20
1.671960329340314
 30
0.0
  0
VERTEX
  5
2686
  8
0
 10
33.283177805869208
 20
1.667449841134041
 30
0.0
  0
VERTEX
  5
2687
  8
0
 10
33.262756993865892
 20
1.6617616471648791
 30
0.0
  0
VERTEX
  5
2688
  8
0
 10
33.24008092983297
 20
1.654912707285898
 30
0.0
  0
VERTEX
  5
2689
  8
0
 10
33.215880310482042
 20
1.6470863948683681
 30
0.0
  0
VERTEX
  5
268A
  8
0
 10
33.190882922546983
 20
1.638493927691125
 30
0.0
  0
VERTEX
  5
268B
  8
0
 10
33.165743398303832
 20
1.629346128393097
 30
0.0
  0
VERTEX
  5
268C
  8
0
 10
33.14109918276673
 20
1.6198676975493671
 30
0.0
  0
VERTEX
  5
268D
  8
0
 10
33.117600132246643
 20
1.61030922939673
 30
0.0
  0
VERTEX
  5
268E
  8
0
 10
33.095940083340331
 20
1.6009663815467201
 30
0.0
  0
VERTEX
  5
268F
  8
0
 10
33.076825143453128
 20
1.5921790906359681
 30
0.0
  0
VERTEX
  5
2690
  8
0
 10
33.060512516933933
 20
1.5841318904484341
 30
0.0
  0
VERTEX
  5
2691
  8
0
 10
33.046476333956647
 20
1.5766717027857891
 30
0.0
  0
VERTEX
  5
2692
  8
0
 10
33.03407096234713
 20
1.569558318675619
 30
0.0
  0
VERTEX
  5
2693
  8
0
 10
33.022640264101909
 20
1.562492526970177
 30
0.0
  0
VERTEX
  5
2694
  8
0
 10
33.011510763302731
 20
1.5550987763715201
 30
0.0
  0
VERTEX
  5
2695
  8
0
 10
33.00004266145605
 20
1.546953158213866
 30
0.0
  0
VERTEX
  5
2696
  8
0
 10
32.987674346929047
 20
1.537626656383789
 30
0.0
  0
VERTEX
  5
2697
  8
0
 10
32.974020132129873
 20
1.526788026494172
 30
0.0
  0
VERTEX
  5
2698
  8
0
 10
32.959157661836599
 20
1.5144714244513731
 30
0.0
  0
VERTEX
  5
2699
  8
0
 10
32.943490025967968
 20
1.5009747149775621
 30
0.0
  0
VERTEX
  5
269A
  8
0
 10
32.927231178866407
 20
1.486454478098113
 30
0.0
  0
VERTEX
  5
269B
  8
0
 10
32.910513499959642
 20
1.471009208916233
 30
0.0
  0
VERTEX
  5
269C
  8
0
 10
32.893457017758742
 20
1.4547342598529001
 30
0.0
  0
VERTEX
  5
269D
  8
0
 10
32.87617225868987
 20
1.4377225587397531
 30
0.0
  0
VERTEX
  5
269E
  8
0
 10
32.858762408330357
 20
1.420065296627762
 30
0.0
  0
VERTEX
  5
269F
  8
0
 10
32.841450380025819
 20
1.4019835679868731
 30
0.0
  0
VERTEX
  5
26A0
  8
0
 10
32.824850947316932
 20
1.384100995077592
 30
0.0
  0
VERTEX
  5
26A1
  8
0
 10
32.80923711276796
 20
1.366597931390787
 30
0.0
  0
VERTEX
  5
26A2
  8
0
 10
32.794205405565648
 20
1.348909160165052
 30
0.0
  0
VERTEX
  5
26A3
  8
0
 10
32.791727850877841
 20
1.3458290722316311
 30
0.0
  0
SEQEND
  5
26A4
  8
0
  0
LINE
  5
152C
  8
0
 10
35.080138796062087
 20
-2.2415367527873382
 30
0.0
 11
31.435464885071362
 21
-1.6340911009555501
 31
0.0
  0
LINE
  5
152D
  8
0
 10
33.450711635037003
 20
-0.2189303309769457
 30
0.0
 11
34.769971328233481
 21
-0.2189303309769457
 31
0.0
  0
LINE
  5
152E
  8
0
 10
33.450711635037003
 20
-0.3439303309769457
 30
0.0
 11
34.807773443366983
 21
-0.3439303309769457
 31
0.0
  0
ARC
  5
1530
  8
0
 10
30.760108820161829
 20
-0.8879106598978962
 30
0.0
 40
0.75
 50
260.53767779197437
 51
341.75711834882873
  0
LINE
  5
1531
  8
0
 10
22.476686348838669
 20
1.522978879075914
 30
0.0
 11
31.47668634883868
 21
1.522978879075914
 31
0.0
  0
LINE
  5
1532
  8
0
 10
29.476686348838669
 20
4.5229788790759127
 30
0.0
 11
29.476686348838669
 21
3.755023876123778
 31
0.0
  0
LINE
  5
1533
  8
0
 10
27.476686348838669
 20
4.5229788790759127
 30
0.0
 11
27.476686348838669
 21
3.755023876123778
 31
0.0
  0
LINE
  5
1534
  8
0
 10
25.476686348838669
 20
4.5229788790759127
 30
0.0
 11
25.476686348838669
 21
3.755023876123778
 31
0.0
  0
LINE
  5
1535
  8
0
 10
23.476686348838669
 20
4.5229788790759127
 30
0.0
 11
23.476686348838669
 21
3.755023876123778
 31
0.0
  0
LINE
  5
1537
  8
0
 10
22.476686348838669
 20
4.5229788790759127
 30
0.0
 11
29.690741776814669
 21
4.5229788790759127
 31
0.0
  0
LINE
  5
1538
  8
0
 10
30.049786952833529
 20
4.1856289183796251
 30
0.0
 11
30.988608205640588
 21
2.7133252473189202
 31
0.0
  0
POLYLINE
  5
1539
  8
0
 66
     1
 10
0.0
 20
0.0
 30
0.0
 70
     4
 75
     6
  0
VERTEX
  5
153A
  8
0
 10
30.98860820564062
 20
2.7133252473189202
 30
0.0
 70
    16
  0
VERTEX
  5
1549
  8
0
 10
30.98860820564062
 20
2.7133252473189202
 30
0.0
 70
     8
  0
VERTEX
  5
154A
  8
0
 10
31.033898206451681
 20
2.642382798393196
 30
0.0
 70
     8
  0
VERTEX
  5
154B
  8
0
 10
31.075402014729018
 20
2.575752260233211
 30
0.0
 70
     8
  0
VERTEX
  5
154C
  8
0
 10
31.113340806548688
 20
2.51334882482199
 30
0.0
 70
     8
  0
VERTEX
  5
154D
  8
0
 10
31.14793575798668
 20
2.455087684142558
 30
0.0
 70
     8
  0
VERTEX
  5
154E
  8
0
 10
31.179408045119001
 20
2.4008840301779411
 30
0.0
 70
     8
  0
VERTEX
  5
154F
  8
0
 10
31.207978844021671
 20
2.3506530549111631
 30
0.0
 70
     8
  0
VERTEX
  5
1550
  8
0
 10
31.23386933077072
 20
2.304309950325246
 30
0.0
 70
     8
  0
VERTEX
  5
1551
  8
0
 10
31.257300681442111
 20
2.2617699084032181
 30
0.0
 70
     8
  0
VERTEX
  5
1552
  8
0
 10
31.278491906468538
 20
2.222885875566138
 30
0.0
 70
     8
  0
VERTEX
  5
1553
  8
0
 10
31.297653353709102
 20
2.1872618159872239
 30
0.0
 70
     8
  0
VERTEX
  5
1554
  8
0
 10
31.31499320537954
 20
2.1544394482777238
 30
0.0
 70
     8
  0
VERTEX
  5
1555
  8
0
 10
31.330719643695598
 20
2.1239604910488921
 30
0.0
 70
     8
  0
VERTEX
  5
1556
  8
0
 10
31.345040850873019
 20
2.0953666629119758
 30
0.0
 70
     8
  0
VERTEX
  5
1557
  8
0
 10
31.358165009127539
 20
2.0681996824782289
 30
0.0
 70
     8
  0
VERTEX
  5
1558
  8
0
 10
31.37030030067492
 20
2.0420012683589031
 30
0.0
 70
     8
  0
VERTEX
  5
1559
  8
0
 10
31.381654907730891
 20
2.016313139165248
 30
0.0
 70
     8
  0
VERTEX
  5
155A
  8
0
 10
31.392397649622151
 20
1.9907631444031471
 30
0.0
 70
     8
  0
VERTEX
  5
155B
  8
0
 10
31.402539894119268
 20
1.9653236571570061
 30
0.0
 70
     8
  0
VERTEX
  5
155C
  8
0
 10
31.412053646103772
 20
1.940053181405865
 30
0.0
 70
     8
  0
VERTEX
  5
155D
  8
0
 10
31.420910910457138
 20
1.9150102211287601
 30
0.0
 70
     8
  0
VERTEX
  5
155E
  8
0
 10
31.429083692060932
 20
1.8902532803047301
 30
0.0
 70
     8
  0
VERTEX
  5
155F
  8
0
 10
31.436543995796651
 20
1.8658408629128129
 30
0.0
 70
     8
  0
VERTEX
  5
1560
  8
0
 10
31.44326382654582
 20
1.841831472932048
 30
0.0
 70
     8
  0
VERTEX
  5
1561
  8
0
 10
31.44921518918995
 20
1.818283614341472
 30
0.0
 70
     8
  0
VERTEX
  5
1562
  8
0
 10
31.454382246432221
 20
1.795236289793779
 30
0.0
 70
     8
  0
VERTEX
  5
1563
  8
0
 10
31.458797792262299
 20
1.7726504966362731
 30
0.0
 70
     8
  0
VERTEX
  5
1564
  8
0
 10
31.462506778491552
 20
1.7504677308899199
 30
0.0
 70
     8
  0
VERTEX
  5
1565
  8
0
 10
31.465554156931312
 20
1.7286294885756801
 30
0.0
 70
     8
  0
VERTEX
  5
1566
  8
0
 10
31.467984879392919
 20
1.707077265714515
 30
0.0
 70
     8
  0
VERTEX
  5
1567
  8
0
 10
31.46984389768771
 20
1.685752558327386
 30
0.0
 70
     8
  0
VERTEX
  5
1568
  8
0
 10
31.471176163627032
 20
1.6645968624352581
 30
0.0
 70
     8
  0
VERTEX
  5
1569
  8
0
 10
31.472026629022221
 20
1.6435516740590901
 30
0.0
 70
     8
  0
VERTEX
  5
156A
  8
0
 10
31.472437188813888
 20
1.6225834075995891
 30
0.0
 70
     8
  0
VERTEX
  5
156B
  8
0
 10
31.472437510459809
 20
1.601758150976432
 30
0.0
 70
     8
  0
VERTEX
  5
156C
  8
0
 10
31.472054204547021
 20
1.581166910489046
 30
0.0
 70
     8
  0
VERTEX
  5
156D
  8
0
 10
31.471313881662539
 20
1.560900692436852
 30
0.0
 70
     8
  0
VERTEX
  5
156E
  8
0
 10
31.470243152393412
 20
1.5410505031192749
 30
0.0
 70
     8
  0
VERTEX
  5
156F
  8
0
 10
31.4688686273267
 20
1.521707348835738
 30
0.0
 70
     8
  0
VERTEX
  5
1570
  8
0
 10
31.467216917049399
 20
1.5029622358856609
 30
0.0
 70
     8
  0
VERTEX
  5
1571
  8
0
 10
31.465314632148559
 20
1.4849061705684701
 30
0.0
 70
     8
  0
VERTEX
  5
1572
  8
0
 10
31.463184276927478
 20
1.4676149914304171
 30
0.0
 70
     8
  0
VERTEX
  5
1573
  8
0
 10
31.46083193055432
 20
1.451103866005055
 30
0.0
 70
     8
  0
VERTEX
  5
1574
  8
0
 10
31.458259565913568
 20
1.4353727940727661
 30
0.0
 70
     8
  0
VERTEX
  5
1575
  8
0
 10
31.455469155889631
 20
1.4204217754139381
 30
0.0
 70
     8
  0
VERTEX
  5
1576
  8
0
 10
31.452462673366949
 20
1.406250809808951
 30
0.0
 70
     8
  0
VERTEX
  5
1577
  8
0
 10
31.44924209122998
 20
1.392859897038186
 30
0.0
 70
     8
  0
VERTEX
  5
1578
  8
0
 10
31.445809382363151
 20
1.380249036882031
 30
0.0
 70
     8
  0
VERTEX
  5
1579
  8
0
 10
31.44216651965089
 20
1.3684182291208651
 30
0.0
 70
     8
  0
VERTEX
  5
157A
  8
0
 10
31.438314062823402
 20
1.3573555561310651
 30
0.0
 70
     8
  0
VERTEX
  5
157B
  8
0
 10
31.434246918993811
 20
1.3470014306729901
 30
0.0
 70
     8
  0
VERTEX
  5
157C
  8
0
 10
31.429958582121031
 20
1.337284348102983
 30
0.0
 70
     8
  0
VERTEX
  5
157D
  8
0
 10
31.425442546163922
 20
1.328132803777393
 30
0.0
 70
     8
  0
VERTEX
  5
157E
  8
0
 10
31.420692305081399
 20
1.3194752930525691
 30
0.0
 70
     8
  0
VERTEX
  5
157F
  8
0
 10
31.415701352832329
 20
1.3112403112848601
 30
0.0
 70
     8
  0
VERTEX
  5
1580
  8
0
 10
31.410463183375612
 20
1.3033563538306141
 30
0.0
 70
     8
  0
VERTEX
  5
1581
  8
0
 10
31.404971290670151
 20
1.295751916046179
 30
0.0
 70
     8
  0
VERTEX
  5
1582
  8
0
 10
31.399219168803491
 20
1.2883652438961699
 30
0.0
 70
     8
  0
VERTEX
  5
1583
  8
0
 10
31.39320031237801
 20
1.2811735857782831
 30
0.0
 70
     8
  0
VERTEX
  5
1584
  8
0
 10
31.38690821612477
 20
1.2741639406984751
 30
0.0
 70
     8
  0
VERTEX
  5
1585
  8
0
 10
31.38033637477481
 20
1.2673233076627091
 30
0.0
 70
     8
  0
VERTEX
  5
1586
  8
0
 10
31.373478283059171
 20
1.260638685676944
 30
0.0
 70
     8
  0
VERTEX
  5
1587
  8
0
 10
31.366327435708911
 20
1.2540970737471431
 30
0.0
 70
     8
  0
VERTEX
  5
1588
  8
0
 10
31.35887732745508
 20
1.2476854708792651
 30
0.0
 70
     8
  0
VERTEX
  5
1589
  8
0
 10
31.351121453028728
 20
1.241390876079272
 30
0.0
 70
     8
  0
VERTEX
  5
158A
  8
0
 10
31.34305872841141
 20
1.2352067888135421
 30
0.0
 70
     8
  0
VERTEX
  5
158B
  8
0
 10
31.334709754586651
 20
1.229152710390119
 30
0.0
 70
     8
  0
VERTEX
  5
158C
  8
0
 10
31.326100553788521
 20
1.2232546425774631
 30
0.0
 70
     8
  0
VERTEX
  5
158D
  8
0
 10
31.317257148251031
 20
1.2175385871440381
 30
0.0
 70
     8
  0
VERTEX
  5
158E
  8
0
 10
31.308205560208251
 20
1.2120305458583021
 30
0.0
 70
     8
  0
VERTEX
  5
158F
  8
0
 10
31.298971811894202
 20
1.2067565204887201
 30
0.0
 70
     8
  0
VERTEX
  5
1590
  8
0
 10
31.289581925542929
 20
1.2017425128037511
 30
0.0
 70
     8
  0
VERTEX
  5
1591
  8
0
 10
31.28006192338848
 20
1.1970145245718591
 30
0.0
 70
     8
  0
VERTEX
  5
1592
  8
0
 10
31.270399877946211
 20
1.1925931405264061
 30
0.0
 70
     8
  0
VERTEX
  5
1593
  8
0
 10
31.260432062856701
 20
1.1884772772603731
 30
0.0
 70
     8
  0
VERTEX
  5
1594
  8
0
 10
31.249956802041801
 20
1.1846604343316469
 30
0.0
 70
     8
  0
VERTEX
  5
1595
  8
0
 10
31.238772419423452
 20
1.181136111298112
 30
0.0
 70
     8
  0
VERTEX
  5
1596
  8
0
 10
31.226677238923521
 20
1.1778978077176501
 30
0.0
 70
     8
  0
VERTEX
  5
1597
  8
0
 10
31.21346958446388
 20
1.17493902314815
 30
0.0
 70
     8
  0
VERTEX
  5
1598
  8
0
 10
31.19894777996646
 20
1.1722532571474951
 30
0.0
 70
     8
  0
VERTEX
  5
1599
  8
0
 10
31.182910149353109
 20
1.1698340092735671
 30
0.0
 70
     8
  0
VERTEX
  5
159A
  8
0
 10
31.164957676927521
 20
1.167652678016452
 30
0.0
 70
     8
  0
VERTEX
  5
159B
  8
0
 10
31.143901988520408
 20
1.1655922575950231
 30
0.0
 70
     8
  0
VERTEX
  5
159C
  8
0
 10
31.118357370344381
 20
1.1635136411603511
 30
0.0
 70
     8
  0
VERTEX
  5
159D
  8
0
 10
31.086938108611911
 20
1.1612777218635111
 30
0.0
 70
     8
  0
VERTEX
  5
159E
  8
0
 10
31.048258489535559
 20
1.1587453928555751
 30
0.0
 70
     8
  0
VERTEX
  5
159F
  8
0
 10
31.00093279932786
 20
1.1557775472876151
 30
0.0
 70
     8
  0
VERTEX
  5
15A0
  8
0
 10
30.943575324201351
 20
1.152235078310704
 30
0.0
 70
     8
  0
VERTEX
  5
15A1
  8
0
 10
30.87480035036856
 20
1.147978879075914
 30
0.0
 70
     8
  0
VERTEX
  5
153B
  8
0
 10
31.11462639880483
 20
2.5183207842586901
 30
0.0
 70
    16
  0
VERTEX
  5
153C
  8
0
 10
31.281172254792612
 20
2.2221085255028181
 30
0.0
 70
    16
  0
VERTEX
  5
153D
  8
0
 10
31.387761598671322
 20
2.015758434771405
 30
0.0
 70
    16
  0
VERTEX
  5
153E
  8
0
 10
31.457710796907438
 20
1.8127365704030449
 30
0.0
 70
    16
  0
VERTEX
  5
153F
  8
0
 10
31.47668634883868
 20
1.6429969696652471
 30
0.0
 70
    16
  0
VERTEX
  5
1540
  8
0
 10
31.467703581871181
 20
1.476585595290508
 30
0.0
 70
    16
  0
VERTEX
  5
1541
  8
0
 10
31.444387116568009
 20
1.3600976725835481
 30
0.0
 70
    16
  0
VERTEX
  5
1542
  8
0
 10
31.40774706976211
 20
1.293533089100485
 30
0.0
 70
    16
  0
VERTEX
  5
1543
  8
0
 10
31.354452348404411
 20
1.2402814672915881
 30
0.0
 70
    16
  0
VERTEX
  5
1544
  8
0
 10
31.281172254792612
 20
1.193686298208803
 30
0.0
 70
    16
  0
VERTEX
  5
1545
  8
0
 10
31.201230172756059
 20
1.1670604873043531
 30
0.0
 70
    16
  0
VERTEX
  5
1546
  8
0
 10
31.074655357786561
 20
1.160404034578242
 30
0.0
 70
    16
  0
VERTEX
  5
1547
  8
0
 10
30.87480035036856
 20
1.147978879075914
 30
0.0
 70
    16
  0
SEQEND
  5
1548
  8
0
  0
LINE
  5
15A9
  8
0
 10
29.476686348838658
 20
4.1544192937840601
 30
0.0
 11
29.731362686161852
 21
3.755023876123778
 31
0.0
  0
LINE
  5
15CF
  8
0
 10
30.871764800781509
 20
1.923021134913359
 30
0.0
 11
31.063246836210659
 21
1.522978879075914
 31
0.0
  0
POLYLINE
  5
15D0
  8
0
 66
     1
 10
0.0
 20
0.0
 30
0.0
  0
VERTEX
  5
26A5
  8
0
 10
30.567167541838991
 20
2.4442754993271301
 30
0.0
  0
VERTEX
  5
26A6
  8
0
 10
30.61096473691201
 20
2.3756713876266242
 30
0.0
  0
VERTEX
  5
26A7
  8
0
 10
30.649570000396121
 20
2.3136941959297959
 30
0.0
  0
VERTEX
  5
26A8
  8
0
 10
30.68474998946613
 20
2.2558285636731501
 30
0.0
  0
VERTEX
  5
26A9
  8
0
 10
30.716767008407469
 20
2.2019089029382162
 30
0.0
  0
VERTEX
  5
26AA
  8
0
 10
30.745893336793731
 20
2.1517456142496472
 30
0.0
  0
VERTEX
  5
26AB
  8
0
 10
30.772414760490008
 20
2.1051176924240731
 30
0.0
  0
VERTEX
  5
26AC
  8
0
 10
30.79663589137391
 20
2.061762678954373
 30
0.0
  0
VERTEX
  5
26AD
  8
0
 10
30.818801980396859
 20
2.021519742492571
 30
0.0
  0
VERTEX
  5
26AE
  8
0
 10
30.838800146744418
 20
1.984824867327488
 30
0.0
  0
VERTEX
  5
26AF
  8
0
 10
30.856426862539081
 20
1.952054108116746
 30
0.0
  0
VERTEX
  5
26B0
  8
0
 10
30.871764800781509
 20
1.923021134913359
 30
0.0
  0
VERTEX
  5
26B1
  8
0
 10
30.88500382540467
 20
1.897362962533109
 30
0.0
  0
VERTEX
  5
26B2
  8
0
 10
30.89637864716094
 20
1.874651909312703
 30
0.0
  0
VERTEX
  5
26B3
  8
0
 10
30.906181077401872
 20
1.854360898994647
 30
0.0
  0
VERTEX
  5
26B4
  8
0
 10
30.914761110837041
 20
1.835837794855393
 30
0.0
  0
VERTEX
  5
26B5
  8
0
 10
30.92250093107458
 20
1.8183275894191631
 30
0.0
  0
VERTEX
  5
26B6
  8
0
 10
30.927010007780591
 20
1.80760342910838
 30
0.0
  0
SEQEND
  5
26B7
  8
0
  0
LINE
  5
15E4
  8
0
 10
30.871764800781509
 20
1.923021134913359
 30
0.0
 11
30.61180929220312
 21
1.522978879075914
 31
0.0
  0
ARC
  5
15E6
  8
0
 10
29.206618858538729
 20
3.6479788790759131
 30
0.0
 40
1.0
 50
32.523809671789159
 51
90.0
  0
LINE
  5
15E7
  8
0
 10
29.41368634883867
 20
4.5229788790759127
 30
0.0
 11
29.41368634883867
 21
3.755023876123778
 31
0.0
  0
LINE
  5
15E9
  8
0
 10
29.41368634883867
 20
4.1479788790759127
 30
0.0
 11
29.03868634883867
 21
4.5229788790759127
 31
0.0
  0
LINE
  5
15EB
  8
0
 10
27.413686348838681
 20
4.5229788790759127
 30
0.0
 11
27.41368634883866
 21
3.755023876123778
 31
0.0
  0
LINE
  5
15EC
  8
0
 10
25.41368634883867
 20
4.5229788790759127
 30
0.0
 11
25.41368634883867
 21
3.755023876123778
 31
0.0
  0
LINE
  5
15ED
  8
0
 10
23.41368634883867
 20
4.5229788790759127
 30
0.0
 11
23.41368634883867
 21
3.755023876123778
 31
0.0
  0
LINE
  5
15EE
  8
0
 10
21.539686348838671
 20
4.5229788790759127
 30
0.0
 11
21.539686348838671
 21
3.755023876123778
 31
0.0
  0
LINE
  5
15EF
  8
0
 10
19.539686348838671
 20
4.5229788790759127
 30
0.0
 11
19.539686348838671
 21
3.755023876123778
 31
0.0
  0
LINE
  5
15F0
  8
0
 10
17.539686348838671
 20
4.5229788790759127
 30
0.0
 11
17.539686348838671
 21
3.755023876123778
 31
0.0
  0
LINE
  5
15F1
  8
0
 10
15.53968634883867
 20
4.5229788790759127
 30
0.0
 11
15.539686348838661
 21
3.755023876123778
 31
0.0
  0
POLYLINE
  5
15F2
  8
0
 66
     1
 10
0.0
 20
0.0
 30
0.0
  0
VERTEX
  5
26B8
  8
0
 10
14.38620515583834
 20
2.4442754993271301
 30
0.0
  0
VERTEX
  5
26B9
  8
0
 10
14.34240796076533
 20
2.3756713876266242
 30
0.0
  0
VERTEX
  5
26BA
  8
0
 10
14.30380269728122
 20
2.3136941959297959
 30
0.0
  0
VERTEX
  5
26BB
  8
0
 10
14.268622708211209
 20
2.2558285636731501
 30
0.0
  0
VERTEX
  5
26BC
  8
0
 10
14.23660568926986
 20
2.2019089029382162
 30
0.0
  0
VERTEX
  5
26BD
  8
0
 10
14.20747936088361
 20
2.1517456142496472
 30
0.0
  0
VERTEX
  5
26BE
  8
0
 10
14.180957937187319
 20
2.1051176924240731
 30
0.0
  0
VERTEX
  5
26BF
  8
0
 10
14.15673680630343
 20
2.061762678954373
 30
0.0
  0
VERTEX
  5
26C0
  8
0
 10
14.13457071728048
 20
2.021519742492571
 30
0.0
  0
VERTEX
  5
26C1
  8
0
 10
14.114572550932911
 20
1.984824867327488
 30
0.0
  0
VERTEX
  5
26C2
  8
0
 10
14.09694583513825
 20
1.952054108116746
 30
0.0
  0
VERTEX
  5
26C3
  8
0
 10
14.08160789689583
 20
1.923021134913359
 30
0.0
  0
VERTEX
  5
26C4
  8
0
 10
14.068368872272661
 20
1.897362962533109
 30
0.0
  0
VERTEX
  5
26C5
  8
0
 10
14.056994050516391
 20
1.874651909312703
 30
0.0
  0
VERTEX
  5
26C6
  8
0
 10
14.04719162027547
 20
1.854360898994647
 30
0.0
  0
VERTEX
  5
26C7
  8
0
 10
14.0386115868403
 20
1.835837794855393
 30
0.0
  0
VERTEX
  5
26C8
  8
0
 10
14.030871766602759
 20
1.8183275894191631
 30
0.0
  0
VERTEX
  5
26C9
  8
0
 10
14.02636268989675
 20
1.80760342910838
 30
0.0
  0
SEQEND
  5
26CA
  8
0
  0
POLYLINE
  5
1606
  8
0
 66
     1
 10
0.0
 20
0.0
 30
0.0
 70
     4
 75
     6
  0
VERTEX
  5
1607
  8
0
 10
13.96476449203672
 20
2.7133252473189202
 30
0.0
 70
    16
  0
VERTEX
  5
1608
  8
0
 10
13.96476449203672
 20
2.7133252473189202
 30
0.0
 70
     8
  0
VERTEX
  5
1609
  8
0
 10
13.91947449122566
 20
2.642382798393196
 30
0.0
 70
     8
  0
VERTEX
  5
160A
  8
0
 10
13.877970682948311
 20
2.575752260233211
 30
0.0
 70
     8
  0
VERTEX
  5
160B
  8
0
 10
13.84003189112865
 20
2.51334882482199
 30
0.0
 70
     8
  0
VERTEX
  5
160C
  8
0
 10
13.80543693969066
 20
2.455087684142558
 30
0.0
 70
     8
  0
VERTEX
  5
160D
  8
0
 10
13.773964652558339
 20
2.4008840301779411
 30
0.0
 70
     8
  0
VERTEX
  5
160E
  8
0
 10
13.745393853655671
 20
2.3506530549111631
 30
0.0
 70
     8
  0
VERTEX
  5
160F
  8
0
 10
13.719503366906631
 20
2.304309950325246
 30
0.0
 70
     8
  0
VERTEX
  5
1610
  8
0
 10
13.69607201623522
 20
2.2617699084032181
 30
0.0
 70
     8
  0
VERTEX
  5
1611
  8
0
 10
13.674880791208791
 20
2.222885875566138
 30
0.0
 70
     8
  0
VERTEX
  5
1612
  8
0
 10
13.65571934396824
 20
2.1872618159872239
 30
0.0
 70
     8
  0
VERTEX
  5
1613
  8
0
 10
13.638379492297799
 20
2.1544394482777238
 30
0.0
 70
     8
  0
VERTEX
  5
1614
  8
0
 10
13.62265305398174
 20
2.1239604910488921
 30
0.0
 70
     8
  0
VERTEX
  5
1615
  8
0
 10
13.608331846804321
 20
2.0953666629119758
 30
0.0
 70
     8
  0
VERTEX
  5
1616
  8
0
 10
13.59520768854979
 20
2.0681996824782289
 30
0.0
 70
     8
  0
VERTEX
  5
1617
  8
0
 10
13.58307239700242
 20
2.0420012683589031
 30
0.0
 70
     8
  0
VERTEX
  5
1618
  8
0
 10
13.57171778994644
 20
2.016313139165248
 30
0.0
 70
     8
  0
VERTEX
  5
1619
  8
0
 10
13.560975048055189
 20
1.9907631444031471
 30
0.0
 70
     8
  0
VERTEX
  5
161A
  8
0
 10
13.55083280355807
 20
1.9653236571570061
 30
0.0
 70
     8
  0
VERTEX
  5
161B
  8
0
 10
13.541319051573581
 20
1.940053181405865
 30
0.0
 70
     8
  0
VERTEX
  5
161C
  8
0
 10
13.5324617872202
 20
1.9150102211287601
 30
0.0
 70
     8
  0
VERTEX
  5
161D
  8
0
 10
13.52428900561641
 20
1.8902532803047301
 30
0.0
 70
     8
  0
VERTEX
  5
161E
  8
0
 10
13.51682870188068
 20
1.8658408629128129
 30
0.0
 70
     8
  0
VERTEX
  5
161F
  8
0
 10
13.51010887113152
 20
1.841831472932048
 30
0.0
 70
     8
  0
VERTEX
  5
1620
  8
0
 10
13.50415750848738
 20
1.818283614341472
 30
0.0
 70
     8
  0
VERTEX
  5
1621
  8
0
 10
13.49899045124512
 20
1.795236289793779
 30
0.0
 70
     8
  0
VERTEX
  5
1622
  8
0
 10
13.494574905415041
 20
1.7726504966362731
 30
0.0
 70
     8
  0
VERTEX
  5
1623
  8
0
 10
13.49086591918579
 20
1.7504677308899199
 30
0.0
 70
     8
  0
VERTEX
  5
1624
  8
0
 10
13.48781854074603
 20
1.7286294885756801
 30
0.0
 70
     8
  0
VERTEX
  5
1625
  8
0
 10
13.485387818284419
 20
1.707077265714515
 30
0.0
 70
     8
  0
VERTEX
  5
1626
  8
0
 10
13.48352879998963
 20
1.685752558327386
 30
0.0
 70
     8
  0
VERTEX
  5
1627
  8
0
 10
13.48219653405031
 20
1.6645968624352581
 30
0.0
 70
     8
  0
VERTEX
  5
1628
  8
0
 10
13.481346068655119
 20
1.6435516740590901
 30
0.0
 70
     8
  0
VERTEX
  5
1629
  8
0
 10
13.48093550886345
 20
1.6225834075995891
 30
0.0
 70
     8
  0
VERTEX
  5
162A
  8
0
 10
13.48093518721752
 20
1.601758150976432
 30
0.0
 70
     8
  0
VERTEX
  5
162B
  8
0
 10
13.48131849313032
 20
1.581166910489046
 30
0.0
 70
     8
  0
VERTEX
  5
162C
  8
0
 10
13.482058816014799
 20
1.560900692436852
 30
0.0
 70
     8
  0
VERTEX
  5
162D
  8
0
 10
13.483129545283919
 20
1.5410505031192749
 30
0.0
 70
     8
  0
VERTEX
  5
162E
  8
0
 10
13.484504070350649
 20
1.521707348835738
 30
0.0
 70
     8
  0
VERTEX
  5
162F
  8
0
 10
13.486155780627939
 20
1.5029622358856609
 30
0.0
 70
     8
  0
VERTEX
  5
1630
  8
0
 10
13.488058065528771
 20
1.4849061705684701
 30
0.0
 70
     8
  0
VERTEX
  5
1631
  8
0
 10
13.49018842074986
 20
1.4676149914304171
 30
0.0
 70
     8
  0
VERTEX
  5
1632
  8
0
 10
13.49254076712301
 20
1.451103866005055
 30
0.0
 70
     8
  0
VERTEX
  5
1633
  8
0
 10
13.49511313176377
 20
1.4353727940727661
 30
0.0
 70
     8
  0
VERTEX
  5
1634
  8
0
 10
13.497903541787711
 20
1.4204217754139381
 30
0.0
 70
     8
  0
VERTEX
  5
1635
  8
0
 10
13.500910024310381
 20
1.406250809808951
 30
0.0
 70
     8
  0
VERTEX
  5
1636
  8
0
 10
13.50413060644736
 20
1.392859897038186
 30
0.0
 70
     8
  0
VERTEX
  5
1637
  8
0
 10
13.50756331531419
 20
1.380249036882031
 30
0.0
 70
     8
  0
VERTEX
  5
1638
  8
0
 10
13.51120617802645
 20
1.3684182291208651
 30
0.0
 70
     8
  0
VERTEX
  5
1639
  8
0
 10
13.51505863485394
 20
1.3573555561310651
 30
0.0
 70
     8
  0
VERTEX
  5
163A
  8
0
 10
13.51912577868352
 20
1.3470014306729901
 30
0.0
 70
     8
  0
VERTEX
  5
163B
  8
0
 10
13.52341411555631
 20
1.337284348102983
 30
0.0
 70
     8
  0
VERTEX
  5
163C
  8
0
 10
13.527930151513401
 20
1.328132803777393
 30
0.0
 70
     8
  0
VERTEX
  5
163D
  8
0
 10
13.532680392595941
 20
1.3194752930525691
 30
0.0
 70
     8
  0
VERTEX
  5
163E
  8
0
 10
13.537671344845011
 20
1.3112403112848601
 30
0.0
 70
     8
  0
VERTEX
  5
163F
  8
0
 10
13.542909514301719
 20
1.3033563538306141
 30
0.0
 70
     8
  0
VERTEX
  5
1640
  8
0
 10
13.548401407007191
 20
1.295751916046179
 30
0.0
 70
     8
  0
VERTEX
  5
1641
  8
0
 10
13.554153528873851
 20
1.2883652438961699
 30
0.0
 70
     8
  0
VERTEX
  5
1642
  8
0
 10
13.560172385299319
 20
1.2811735857782831
 30
0.0
 70
     8
  0
VERTEX
  5
1643
  8
0
 10
13.56646448155257
 20
1.2741639406984751
 30
0.0
 70
     8
  0
VERTEX
  5
1644
  8
0
 10
13.57303632290253
 20
1.2673233076627091
 30
0.0
 70
     8
  0
VERTEX
  5
1645
  8
0
 10
13.57989441461817
 20
1.260638685676944
 30
0.0
 70
     8
  0
VERTEX
  5
1646
  8
0
 10
13.587045261968431
 20
1.2540970737471431
 30
0.0
 70
     8
  0
VERTEX
  5
1647
  8
0
 10
13.59449537022226
 20
1.2476854708792651
 30
0.0
 70
     8
  0
VERTEX
  5
1648
  8
0
 10
13.60225124464861
 20
1.241390876079272
 30
0.0
 70
     8
  0
VERTEX
  5
1649
  8
0
 10
13.610313969265929
 20
1.2352067888135421
 30
0.0
 70
     8
  0
VERTEX
  5
164A
  8
0
 10
13.61866294309068
 20
1.229152710390119
 30
0.0
 70
     8
  0
VERTEX
  5
164B
  8
0
 10
13.62727214388882
 20
1.2232546425774631
 30
0.0
 70
     8
  0
VERTEX
  5
164C
  8
0
 10
13.636115549426311
 20
1.2175385871440381
 30
0.0
 70
     8
  0
VERTEX
  5
164D
  8
0
 10
13.645167137469089
 20
1.2120305458583021
 30
0.0
 70
     8
  0
VERTEX
  5
164E
  8
0
 10
13.65440088578314
 20
1.2067565204887201
 30
0.0
 70
     8
  0
VERTEX
  5
164F
  8
0
 10
13.66379077213441
 20
1.2017425128037511
 30
0.0
 70
     8
  0
VERTEX
  5
1650
  8
0
 10
13.673310774288851
 20
1.1970145245718591
 30
0.0
 70
     8
  0
VERTEX
  5
1651
  8
0
 10
13.68297281973113
 20
1.1925931405264061
 30
0.0
 70
     8
  0
VERTEX
  5
1652
  8
0
 10
13.692940634820649
 20
1.1884772772603731
 30
0.0
 70
     8
  0
VERTEX
  5
1653
  8
0
 10
13.703415895635541
 20
1.1846604343316469
 30
0.0
 70
     8
  0
VERTEX
  5
1654
  8
0
 10
13.71460027825389
 20
1.181136111298112
 30
0.0
 70
     8
  0
VERTEX
  5
1655
  8
0
 10
13.72669545875382
 20
1.1778978077176501
 30
0.0
 70
     8
  0
VERTEX
  5
1656
  8
0
 10
13.73990311321344
 20
1.17493902314815
 30
0.0
 70
     8
  0
VERTEX
  5
1657
  8
0
 10
13.75442491771088
 20
1.1722532571474951
 30
0.0
 70
     8
  0
VERTEX
  5
1658
  8
0
 10
13.770462548324231
 20
1.1698340092735671
 30
0.0
 70
     8
  0
VERTEX
  5
1659
  8
0
 10
13.788415020749831
 20
1.167652678016452
 30
0.0
 70
     8
  0
VERTEX
  5
165A
  8
0
 10
13.809470709156921
 20
1.1655922575950231
 30
0.0
 70
     8
  0
VERTEX
  5
165B
  8
0
 10
13.83501532733297
 20
1.1635136411603511
 30
0.0
 70
     8
  0
VERTEX
  5
165C
  8
0
 10
13.866434589065429
 20
1.1612777218635111
 30
0.0
 70
     8
  0
VERTEX
  5
165D
  8
0
 10
13.90511420814178
 20
1.1587453928555751
 30
0.0
 70
     8
  0
VERTEX
  5
165E
  8
0
 10
13.95243989834948
 20
1.1557775472876151
 30
0.0
 70
     8
  0
VERTEX
  5
165F
  8
0
 10
14.00979737347599
 20
1.152235078310704
 30
0.0
 70
     8
  0
VERTEX
  5
1660
  8
0
 10
14.07857234730878
 20
1.147978879075914
 30
0.0
 70
     8
  0
VERTEX
  5
1661
  8
0
 10
13.838746298872509
 20
2.5183207842586901
 30
0.0
 70
    16
  0
VERTEX
  5
1662
  8
0
 10
13.67220044288473
 20
2.2221085255028181
 30
0.0
 70
    16
  0
VERTEX
  5
1663
  8
0
 10
13.56561109900602
 20
2.015758434771405
 30
0.0
 70
    16
  0
VERTEX
  5
1664
  8
0
 10
13.4956619007699
 20
1.8127365704030449
 30
0.0
 70
    16
  0
VERTEX
  5
1665
  8
0
 10
13.476686348838671
 20
1.6429969696652471
 30
0.0
 70
    16
  0
VERTEX
  5
1666
  8
0
 10
13.485669115806161
 20
1.476585595290508
 30
0.0
 70
    16
  0
VERTEX
  5
1667
  8
0
 10
13.50898558110933
 20
1.3600976725835481
 30
0.0
 70
    16
  0
VERTEX
  5
1668
  8
0
 10
13.54562562791523
 20
1.293533089100485
 30
0.0
 70
    16
  0
VERTEX
  5
1669
  8
0
 10
13.59892034927293
 20
1.2402814672915881
 30
0.0
 70
    16
  0
VERTEX
  5
166A
  8
0
 10
13.67220044288473
 20
1.193686298208803
 30
0.0
 70
    16
  0
VERTEX
  5
166B
  8
0
 10
13.752142524921281
 20
1.1670604873043531
 30
0.0
 70
    16
  0
VERTEX
  5
166C
  8
0
 10
13.87871733989078
 20
1.160404034578242
 30
0.0
 70
    16
  0
VERTEX
  5
166D
  8
0
 10
14.07857234730878
 20
1.147978879075914
 30
0.0
 70
    16
  0
SEQEND
  5
166E
  8
0
  0
LINE
  5
166F
  8
0
 10
15.476686348838671
 20
4.5229788790759127
 30
0.0
 11
15.476686348838671
 21
3.755023876123778
 31
0.0
  0
LINE
  5
1670
  8
0
 10
17.476686348838669
 20
4.5229788790759127
 30
0.0
 11
17.476686348838669
 21
3.755023876123778
 31
0.0
  0
LINE
  5
1671
  8
0
 10
19.476686348838669
 20
4.5229788790759127
 30
0.0
 11
19.476686348838669
 21
3.755023876123778
 31
0.0
  0
LINE
  5
1672
  8
0
 10
21.476686348838669
 20
4.5229788790759127
 30
0.0
 11
21.476686348838669
 21
3.755023876123778
 31
0.0
  0
LINE
  5
1673
  8
0
 10
22.476686348838669
 20
1.522978879075914
 30
0.0
 11
13.476686348838671
 21
1.522978879075914
 31
0.0
  0
LINE
  5
1674
  8
0
 10
22.476686348838669
 20
1.147978879075914
 30
0.0
 11
14.07857234730877
 21
1.147978879075914
 31
0.0
  0
LINE
  5
1675
  8
0
 10
14.08160789689583
 20
1.923021134913359
 30
0.0
 11
13.89012586146667
 21
1.522978879075914
 31
0.0
  0
LINE
  5
1676
  8
0
 10
14.08160789689583
 20
1.923021134913359
 30
0.0
 11
14.34156340547422
 21
1.522978879075914
 31
0.0
  0
LINE
  5
1677
  8
0
 10
22.476686348838669
 20
4.6479788790759127
 30
0.0
 11
15.7467538391386
 21
4.6479788790759127
 31
0.0
  0
LINE
  5
1678
  8
0
 10
22.476686348838669
 20
4.5229788790759127
 30
0.0
 11
15.26263092086268
 21
4.5229788790759127
 31
0.0
  0
LINE
  5
1679
  8
0
 10
15.476686348838671
 20
4.1544192937840601
 30
0.0
 11
15.222010011515479
 21
3.755023876123778
 31
0.0
  0
LINE
  5
167A
  8
0
 10
14.903585744843809
 20
4.1856289183796251
 30
0.0
 11
13.964764492036741
 21
2.7133252473189202
 31
0.0
  0
LINE
  5
167B
  8
0
 10
15.53968634883867
 20
4.1479788790759127
 30
0.0
 11
15.91468634883867
 21
4.5229788790759127
 31
0.0
  0
ARC
  5
167C
  8
0
 10
15.7467538391386
 20
3.6479788790759131
 30
0.0
 40
1.0
 50
90.0
 51
147.47619032821081
  0
LINE
  5
167D
  8
0
 10
14.629008445892691
 20
3.755023876123778
 30
0.0
 11
30.324364251784651
 21
3.755023876123778
 31
0.0
  0
LINE
  5
167E
  8
0
 10
13.88788069371547
 20
2.5916618689653661
 30
0.0
 11
15.46935071437956
 21
2.777067239156207
 31
0.0
  0
LINE
  5
167F
  8
0
 10
13.84610148706561
 20
2.523332369891762
 30
0.0
 11
15.476686348838671
 21
2.7144957722796641
 31
0.0
  0
LINE
  5
1680
  8
0
 10
14.588836204194591
 20
3.69202387612378
 30
0.0
 11
30.364536493482731
 21
3.6920238761237769
 31
0.0
  0
LINE
  5
1682
  8
0
 62
     1
 10
21.213282877845529
 20
-0.6838425385136695
 30
0.0
 11
21.706479839761599
 21
-0.2660420321663481
 31
0.0
  0
CIRCLE
  5
1683
  8
0
 62
     1
 10
21.25828287784552
 20
-0.2369632574909074
 30
0.0
 40
0.045
  0
LINE
  5
1684
  8
0
 10
29.41368634883867
 20
3.69202387612378
 30
0.0
 11
29.413686348838681
 21
2.7774957722796629
 31
0.0
  0
LINE
  5
1685
  8
0
 10
29.476686348838669
 20
3.69202387612378
 30
0.0
 11
29.476686348838669
 21
2.7774957722796629
 31
0.0
  0
LINE
  5
1686
  8
0
 10
29.77153492785995
 20
3.69202387612378
 30
0.0
 11
30.425329801960871
 21
2.6667119859409238
 31
0.0
  0
LINE
  5
1687
  8
0
 10
29.476686348838669
 20
2.7144957722796641
 30
0.0
 11
29.476686348838669
 21
1.522978879075914
 31
0.0
  0
LINE
  5
1688
  8
0
 10
29.413686348838681
 20
2.7144957722796641
 30
0.0
 11
29.41368634883867
 21
1.522978879075914
 31
0.0
  0
LINE
  5
1689
  8
0
 10
30.469045162833819
 20
2.598155499706142
 30
0.0
 11
30.56702415849319
 21
2.4445002276670662
 31
0.0
  0
LINE
  5
168E
  8
0
 10
15.476686348838671
 20
3.69202387612378
 30
0.0
 11
15.476686348838671
 21
2.7774957722796629
 31
0.0
  0
LINE
  5
168F
  8
0
 10
15.539686348838661
 20
3.69202387612378
 30
0.0
 11
15.53968634883867
 21
2.7774957722796629
 31
0.0
  0
LINE
  5
1690
  8
0
 10
15.18183776981739
 20
3.69202387612378
 30
0.0
 11
14.528042895716469
 21
2.6667119859409261
 31
0.0
  0
LINE
  5
1691
  8
0
 10
15.53968634883867
 20
2.7144957722796641
 30
0.0
 11
15.539686348838661
 21
1.522978879075914
 31
0.0
  0
LINE
  5
1692
  8
0
 10
15.476686348838671
 20
2.7144957722796641
 30
0.0
 11
15.47668634883866
 21
1.522978879075914
 31
0.0
  0
LINE
  5
1693
  8
0
 10
14.484327534843519
 20
2.598155499706142
 30
0.0
 11
14.386348539184141
 21
2.4445002276670662
 31
0.0
  0
LINE
  5
1694
  8
0
 10
15.476686348838671
 20
2.7144957722796641
 30
0.0
 11
29.47668634883868
 21
2.7144957722796641
 31
0.0
  0
LINE
  5
1695
  8
0
 10
15.476686348838671
 20
2.7774957722796629
 30
0.0
 11
29.480366683093091
 21
2.7774957722796629
 31
0.0
  0
LINE
  5
1696
  8
0
 10
31.107271210611732
 20
2.523332369891762
 30
0.0
 11
29.47668634883868
 21
2.7144957722796641
 31
0.0
  0
LINE
  5
1697
  8
0
 10
31.065492003961861
 20
2.5916618689653661
 30
0.0
 11
29.480366683093091
 21
2.7774957722796629
 31
0.0
  0
LINE
  5
1698
  8
0
 10
30.469045162833819
 20
2.598155499706142
 30
0.0
 11
30.56702415849319
 21
2.4445002276670662
 31
0.0
  0
LINE
  5
1699
  8
0
 10
14.97668634883866
 20
6.0881674173211211
 30
0.0
 11
14.633686348838671
 21
6.4617995893834301
 31
0.0
  0
LINE
  5
169A
  8
0
 10
14.569686348838671
 20
6.461799589383431
 30
0.0
 11
14.22668634883866
 21
6.0881674173211211
 31
0.0
  0
LINE
  5
16A2
  8
0
 10
36.12374481545082
 20
0.3942708463780553
 30
0.0
 11
36.12374481545082
 21
0.5222687029770361
 31
0.0
  0
LINE
  5
16A5
  8
0
 10
39.123744815450813
 20
0.3931820847869076
 30
0.0
 11
39.123744815450813
 21
0.4871820847869084
 31
0.0
  0
LINE
  5
16A6
  8
0
 10
39.123744815450813
 20
0.4871820847869075
 30
0.0
 11
39.498744815450799
 21
0.4181820847869077
 31
0.0
  0
LINE
  5
16A8
  8
0
 10
39.498744815450799
 20
0.3931820847869076
 30
0.0
 11
39.498744815450799
 21
0.4181820847869079
 31
0.0
  0
POLYLINE
  5
16A9
  8
0
 66
     1
 10
0.0
 20
0.0
 30
0.0
 70
     2
  0
VERTEX
  5
16AA
  8
0
 10
36.198822183469481
 20
0.3931820847869076
 30
0.0
 42
-0.0030716607939669
  0
VERTEX
  5
16C6
  8
0
 10
36.174043872207612
 20
0.393029862216185
 30
0.0
 42
-0.0072318591787817
 70
     1
  0
VERTEX
  5
16AB
  8
0
 10
36.163519980235222
 20
0.3931820847869076
 30
0.0
 42
-0.0005778600431475
  0
VERTEX
  5
16C7
  8
0
 10
36.11158253830466
 20
0.3947449722802627
 30
0.0
 42
-0.0120573113142584
 70
     1
  0
VERTEX
  5
16AC
  8
0
 10
36.109095705235269
 20
0.3948827637845937
 30
0.0
 42
-0.0009022928627558
  0
VERTEX
  5
16C8
  8
0
 10
36.099630591999173
 20
0.3956536902850871
 30
0.0
 42
-0.0003304767337181
 70
     1
  0
VERTEX
  5
16AD
  8
0
 10
36.07379350200101
 20
0.3978222401870539
 30
0.0
 42
-0.0005680822097892
  0
VERTEX
  5
16C9
  8
0
 10
36.05235138413245
 20
0.3996607241342929
 30
0.0
 42
-0.0009829230485803
 70
     1
  0
VERTEX
  5
16AE
  8
0
 10
36.039962219809347
 20
0.4007617165895141
 30
0.0
 42
-0.0222815833246454
  0
VERTEX
  5
16CA
  8
0
 10
36.035936913265481
 20
0.4013090987223046
 30
0.0
 42
-0.0073035020560352
 70
     1
  0
VERTEX
  5
16AF
  8
0
 10
36.023782088340823
 20
0.4037011929919744
 30
0.0
 42
-0.034910499285141
  0
VERTEX
  5
16CB
  8
0
 10
36.016299871915614
 20
0.4058423560401039
 30
0.0
 42
-0.0286872050100666
 70
     1
  0
VERTEX
  5
16B0
  8
0
 10
36.007601858660287
 20
0.4095801457968875
 30
0.0
 42
-0.0806149558606934
  0
VERTEX
  5
16CC
  8
0
 10
36.003130707139661
 20
0.4127999660509829
 30
0.0
 42
-0.0883139684110633
 70
     1
  0
VERTEX
  5
16B1
  8
0
 10
36.000247253447327
 20
0.4169287809364448
 30
0.0
 42
-0.1318041131334509
  0
VERTEX
  5
16CD
  8
0
 10
35.999299966294473
 20
0.422402455851355
 30
0.0
 42
-0.0659283346579196
 70
     1
  0
VERTEX
  5
16B2
  8
0
 10
36.001718174489923
 20
0.4330959011499688
 30
0.0
 42
-0.0350675023973587
  0
VERTEX
  5
16CE
  8
0
 10
36.006125898570247
 20
0.4428564712512184
 30
0.0
 42
-0.0339956545030921
 70
     1
  0
VERTEX
  5
16B3
  8
0
 10
36.01201462178809
 20
0.4522024977659457
 30
0.0
 42
-0.0444824257749681
  0
VERTEX
  5
16CF
  8
0
 10
36.027220385573507
 20
0.469570566024686
 30
0.0
 42
-0.0429695829412753
 70
     1
  0
VERTEX
  5
16B4
  8
0
 10
36.045845903979732
 20
0.4845367381929934
 30
0.0
 42
-0.0170610323055616
  0
VERTEX
  5
16D0
  8
0
 10
36.0681318384921
 20
0.4984123718897707
 30
0.0
 42
-0.028537653660883
 70
     1
  0
VERTEX
  5
16B5
  8
0
 10
36.082162637117847
 20
0.5054639151838245
 30
0.0
 42
-0.0059426398585262
  0
VERTEX
  5
16D1
  8
0
 10
36.104338728290699
 20
0.5147552730740728
 30
0.0
 42
-0.0072901288742063
 70
     1
  0
VERTEX
  5
16B6
  8
0
 10
36.122610264959313
 20
0.5218483564252808
 30
0.0
 42
-0.0046283303037801
  0
VERTEX
  5
16D2
  8
0
 10
36.16256865827286
 20
0.5362741972819123
 30
0.0
 42
-0.00834880913282
 70
     1
  0
VERTEX
  5
16B7
  8
0
 10
36.184921552394783
 20
0.5436942594583485
 30
0.0
 42
-0.0060796786955546
  0
VERTEX
  5
16D3
  8
0
 10
36.211951690527293
 20
0.5518089748959483
 30
0.0
 42
-0.002180439349895
 70
     1
  0
VERTEX
  5
16B8
  8
0
 10
36.287680369459743
 20
0.5731862872129199
 30
0.0
 42
-0.0031789592759895
  0
VERTEX
  5
16D4
  8
0
 10
36.369233265487239
 20
0.5952667140361001
 30
0.0
 42
-0.0075957723446766
 70
     1
  0
VERTEX
  5
16B9
  8
0
 10
36.403557362638679
 20
0.6037705626325334
 30
0.0
 42
-0.0111763876311614
  0
VERTEX
  5
16D5
  8
0
 10
36.446126941155683
 20
0.612635799443483
 30
0.0
 42
-0.0063437325930154
 70
     1
  0
VERTEX
  5
16BA
  8
0
 10
36.521620751240619
 20
0.6256165215321943
 30
0.0
 42
-0.0015266391038837
  0
VERTEX
  5
16D6
  8
0
 10
36.571750079042701
 20
0.6334257015402827
 30
0.0
 42
-0.0026811979185244
 70
     1
  0
VERTEX
  5
16BB
  8
0
 10
36.600329611500577
 20
0.6376318045136671
 30
0.0
 42
-0.0041263094048734
  0
VERTEX
  5
16D7
  8
0
 10
36.65761180614254
 20
0.6452668893419009
 30
0.0
 42
-0.004198941200852
 70
     1
  0
VERTEX
  5
16BC
  8
0
 10
36.71402030746853
 20
0.6518316386918386
 30
0.0
 42
-0.0042181706493322
  0
VERTEX
  5
16D8
  8
0
 10
36.755471880095527
 20
0.655949784169362
 30
0.0
 42
-0.0031980418143408
 70
     1
  0
VERTEX
  5
16BD
  8
0
 10
36.810220036476501
 20
0.6605700110783844
 30
0.0
 42
-0.004913877051448
  0
VERTEX
  5
16D9
  8
0
 10
36.85305245654267
 20
0.6634857072691132
 30
0.0
 42
-0.0030197186842147
 70
     1
  0
VERTEX
  5
16BE
  8
0
 10
36.922817534732928
 20
0.6671237764016456
 30
0.0
 42
-0.0080578604173985
  0
VERTEX
  5
16DA
  8
0
 10
37.037489150484816
 20
0.670558695308444
 30
0.0
 42
-0.0126107019287317
 70
     1
  0
VERTEX
  5
16BF
  8
0
 10
37.110795881601533
 20
0.6697236956812918
 30
0.0
 42
-0.0007554617321679
  0
VERTEX
  5
16DB
  8
0
 10
37.189637868220117
 20
0.6667167045070457
 30
0.0
 42
0.0002078276299903
 70
     1
  0
VERTEX
  5
16C0
  8
0
 10
37.268479854838723
 20
0.6637097133327999
 30
0.0
 42
0.0005828912063452
  0
VERTEX
  5
16DC
  8
0
 10
37.497649981831621
 20
0.6553322111724498
 30
0.0
 42
-0.0007440480919842
 70
     1
  0
VERTEX
  5
16C1
  8
0
 10
37.726820108824512
 20
0.6469547090121
 30
0.0
 42
-0.0121608594413755
  0
VERTEX
  5
16DD
  8
0
 10
37.955872057346383
 20
0.6326552063832481
 30
0.0
 42
-0.0067110298138396
 70
     1
  0
VERTEX
  5
16C2
  8
0
 10
38.36961447046594
 20
0.5911046573653921
 30
0.0
 42
-0.0024737380906468
  0
VERTEX
  5
16DF
  8
0
 10
38.413133581774943
 20
0.5859251388342273
 30
0.0
 42
-0.0002974159913779
 70
     1
  0
VERTEX
  5
16C3
  8
0
 10
38.774854445350471
 20
0.5408396444033059
 30
0.0
 42
-0.0070006794530681
  0
VERTEX
  5
16DE
  8
0
 10
38.888780274850703
 20
0.5249478495199825
 30
0.0
 42
-0.0033836848509714
 70
     1
  0
VERTEX
  5
16C4
  8
0
 10
39.123744815450813
 20
0.4871820847869075
 30
0.0
  0
SEQEND
  5
16C5
  8
0
  0
LINE
  5
16E1
  8
0
 10
36.198822183469368
 20
0.3931820847869058
 30
0.0
 11
39.498744815450799
 21
0.3931820847869076
 31
0.0
  0
LINE
  5
175C
  8
0
 10
21.476686348838669
 20
3.6920238761237791
 30
0.0
 11
21.476686348838669
 21
2.7774957722796629
 31
0.0
  0
LINE
  5
175D
  8
0
 10
21.539686348838671
 20
3.6920238761237791
 30
0.0
 11
21.539686348838671
 21
2.7774957722796629
 31
0.0
  0
LINE
  5
175E
  8
0
 10
23.41368634883867
 20
3.6920238761237791
 30
0.0
 11
23.41368634883867
 21
2.7774957722796629
 31
0.0
  0
LINE
  5
175F
  8
0
 10
23.476686348838669
 20
3.6920238761237791
 30
0.0
 11
23.476686348838669
 21
2.7774957722796629
 31
0.0
  0
LINE
  5
1760
  8
0
 10
23.476686348838669
 20
2.7144957722796641
 30
0.0
 11
23.476686348838669
 21
1.522978879075914
 31
0.0
  0
LINE
  5
1761
  8
0
 10
23.41368634883867
 20
2.7144957722796641
 30
0.0
 11
23.41368634883867
 21
1.522978879075914
 31
0.0
  0
LINE
  5
1762
  8
0
 10
21.539686348838671
 20
2.7144957722796641
 30
0.0
 11
21.539686348838671
 21
1.522978879075914
 31
0.0
  0
LINE
  5
1763
  8
0
 10
21.476686348838658
 20
2.7144957722796641
 30
0.0
 11
21.476686348838669
 21
1.522978879075914
 31
0.0
  0
LINE
  5
1764
  8
0
 10
19.476686348838651
 20
3.6920238761237791
 30
0.0
 11
19.476686348838651
 21
2.7774957722796629
 31
0.0
  0
LINE
  5
1765
  8
0
 10
17.476686348838669
 20
3.69202387612378
 30
0.0
 11
17.476686348838658
 21
2.7774957722796629
 31
0.0
  0
LINE
  5
1766
  8
0
 10
17.539686348838671
 20
3.69202387612378
 30
0.0
 11
17.539686348838661
 21
2.777495772279662
 31
0.0
  0
LINE
  5
1767
  8
0
 10
19.539686348838671
 20
3.6920238761237791
 30
0.0
 11
19.539686348838671
 21
2.7774957722796629
 31
0.0
  0
LINE
  5
1768
  8
0
 10
19.539686348838671
 20
2.7144957722796641
 30
0.0
 11
19.539686348838671
 21
1.522978879075914
 31
0.0
  0
LINE
  5
1769
  8
0
 10
17.539686348838661
 20
2.7144957722796641
 30
0.0
 11
17.539686348838661
 21
1.522978879075914
 31
0.0
  0
LINE
  5
176A
  8
0
 10
17.476686348838658
 20
2.7144957722796641
 30
0.0
 11
17.476686348838658
 21
1.522978879075914
 31
0.0
  0
LINE
  5
176B
  8
0
 10
19.476686348838651
 20
2.7144957722796641
 30
0.0
 11
19.476686348838651
 21
1.522978879075914
 31
0.0
  0
LINE
  5
176C
  8
0
 10
25.41368634883867
 20
3.6920238761237769
 30
0.0
 11
25.41368634883867
 21
2.7774957722796629
 31
0.0
  0
LINE
  5
176D
  8
0
 10
27.41368634883866
 20
3.6920238761237769
 30
0.0
 11
27.413686348838681
 21
2.7774957722796629
 31
0.0
  0
LINE
  5
176E
  8
0
 10
25.476686348838669
 20
3.6920238761237769
 30
0.0
 11
25.476686348838669
 21
2.7774957722796629
 31
0.0
  0
LINE
  5
176F
  8
0
 10
27.476686348838669
 20
3.6920238761237769
 30
0.0
 11
27.476686348838669
 21
2.7774957722796629
 31
0.0
  0
LINE
  5
1770
  8
0
 10
27.476686348838669
 20
2.7144957722796641
 30
0.0
 11
27.476686348838669
 21
1.522978879075914
 31
0.0
  0
LINE
  5
1771
  8
0
 10
25.476686348838669
 20
2.7144957722796641
 30
0.0
 11
25.476686348838669
 21
1.522978879075914
 31
0.0
  0
LINE
  5
1772
  8
0
 10
27.413686348838681
 20
2.7144957722796641
 30
0.0
 11
27.413686348838681
 21
1.522978879075914
 31
0.0
  0
LINE
  5
1773
  8
0
 10
25.41368634883867
 20
2.7144957722796641
 30
0.0
 11
25.41368634883867
 21
1.522978879075914
 31
0.0
  0
LINE
  5
1774
  8
0
 10
32.163360245864098
 20
-3.0571183191324569
 30
0.0
 11
35.463282877845529
 21
-3.057118319132456
 31
0.0
  0
POLYLINE
  5
1775
  8
0
 66
     1
 10
0.0
 20
0.0
 30
0.0
 70
     2
  0
VERTEX
  5
1776
  8
0
 10
32.163360245864197
 20
-3.057118319132456
 30
0.0
 42
-0.0030716607939669
  0
VERTEX
  5
1777
  8
0
 10
32.138581934602328
 20
-3.0572705417031791
 30
0.0
 42
-0.0072318591787817
 70
     1
  0
VERTEX
  5
1778
  8
0
 10
32.128058042629952
 20
-3.057118319132456
 30
0.0
 42
-0.0005778600431475
  0
VERTEX
  5
1779
  8
0
 10
32.076120600699383
 20
-3.0555554316391
 30
0.0
 42
-0.0120573113142584
 70
     1
  0
VERTEX
  5
177A
  8
0
 10
32.073633767629978
 20
-3.055417640134769
 30
0.0
 42
-0.0009022928627558
  0
VERTEX
  5
177B
  8
0
 10
32.064168654393903
 20
-3.0546467136342761
 30
0.0
 42
-0.0003304767337181
 70
     1
  0
VERTEX
  5
177C
  8
0
 10
32.03833156439574
 20
-3.0524781637323102
 30
0.0
 42
-0.0005680822097892
  0
VERTEX
  5
177D
  8
0
 10
32.01688944652718
 20
-3.0506396797850699
 30
0.0
 42
-0.0009829230485803
 70
     1
  0
VERTEX
  5
177E
  8
0
 10
32.004500282204077
 20
-3.04953868732985
 30
0.0
 42
-0.0222815833246454
  0
VERTEX
  5
177F
  8
0
 10
32.000474975660197
 20
-3.0489913051970592
 30
0.0
 42
-0.0073035020560352
 70
     1
  0
VERTEX
  5
1780
  8
0
 10
31.98832015073555
 20
-3.0465992109273881
 30
0.0
 42
-0.034910499285141
  0
VERTEX
  5
1781
  8
0
 10
31.98083793431033
 20
-3.0444580478792602
 30
0.0
 42
-0.0286872050100666
 70
     1
  0
VERTEX
  5
1782
  8
0
 10
31.972139921055021
 20
-3.0407202581224761
 30
0.0
 42
-0.0806149558606934
  0
VERTEX
  5
1783
  8
0
 10
31.967668769534381
 20
-3.0375004378683799
 30
0.0
 42
-0.0883139684110633
 70
     1
  0
VERTEX
  5
1784
  8
0
 10
31.96478531584205
 20
-3.033371622982918
 30
0.0
 42
-0.1318041131334509
  0
VERTEX
  5
1785
  8
0
 10
31.963838028689189
 20
-3.0278979480680079
 30
0.0
 42
-0.0659283346579196
 70
     1
  0
VERTEX
  5
1786
  8
0
 10
31.96625623688465
 20
-3.017204502769395
 30
0.0
 42
-0.0350675023973587
  0
VERTEX
  5
1787
  8
0
 10
31.970663960964991
 20
-3.0074439326681439
 30
0.0
 42
-0.0339956545030921
 70
     1
  0
VERTEX
  5
1788
  8
0
 10
31.97655268418281
 20
-2.9980979061534181
 30
0.0
 42
-0.0444824257749681
  0
VERTEX
  5
1789
  8
0
 10
31.991758447968241
 20
-2.9807298378946769
 30
0.0
 42
-0.0429695829412753
 70
     1
  0
VERTEX
  5
178A
  8
0
 10
32.010383966374448
 20
-2.96576366572637
 30
0.0
 42
-0.0170610323055616
  0
VERTEX
  5
178B
  8
0
 10
32.032669900886823
 20
-2.951888032029593
 30
0.0
 42
-0.028537653660883
 70
     1
  0
VERTEX
  5
178C
  8
0
 10
32.04670069951257
 20
-2.9448364887355392
 30
0.0
 42
-0.0059426398585262
  0
VERTEX
  5
178D
  8
0
 10
32.068876790685422
 20
-2.93554513084529
 30
0.0
 42
-0.0072901288742063
 70
     1
  0
VERTEX
  5
178E
  8
0
 10
32.087148327354029
 20
-2.9284520474940829
 30
0.0
 42
-0.0046283303037801
  0
VERTEX
  5
178F
  8
0
 10
32.127106720667591
 20
-2.91402620663745
 30
0.0
 42
-0.00834880913282
 70
     1
  0
VERTEX
  5
1790
  8
0
 10
32.149459614789507
 20
-2.9066061444610152
 30
0.0
 42
-0.0060796786955546
  0
VERTEX
  5
1791
  8
0
 10
32.176489752922031
 20
-2.8984914290234141
 30
0.0
 42
-0.002180439349895
 70
     1
  0
VERTEX
  5
1792
  8
0
 10
32.252218431854452
 20
-2.8771141167064429
 30
0.0
 42
-0.0031789592759895
  0
VERTEX
  5
1793
  8
0
 10
32.333771327881962
 20
-2.8550336898832631
 30
0.0
 42
-0.0075957723446766
 70
     1
  0
VERTEX
  5
1794
  8
0
 10
32.36809542503341
 20
-2.846529841286829
 30
0.0
 42
-0.0111763876311614
  0
VERTEX
  5
1795
  8
0
 10
32.410665003550399
 20
-2.8376646044758802
 30
0.0
 42
-0.0063437325930154
 70
     1
  0
VERTEX
  5
1796
  8
0
 10
32.486158813635342
 20
-2.8246838823871681
 30
0.0
 42
-0.0015266391038837
  0
VERTEX
  5
1797
  8
0
 10
32.536288141437431
 20
-2.816874702379081
 30
0.0
 42
-0.0026811979185244
 70
     1
  0
VERTEX
  5
1798
  8
0
 10
32.564867673895307
 20
-2.812668599405697
 30
0.0
 42
-0.0041263094048734
  0
VERTEX
  5
1799
  8
0
 10
32.62214986853725
 20
-2.8050335145774632
 30
0.0
 42
-0.004198941200852
 70
     1
  0
VERTEX
  5
179A
  8
0
 10
32.678558369863246
 20
-2.7984687652275242
 30
0.0
 42
-0.0042181706493322
  0
VERTEX
  5
179B
  8
0
 10
32.72000994249025
 20
-2.7943506197500021
 30
0.0
 42
-0.0031980418143408
 70
     1
  0
VERTEX
  5
179C
  8
0
 10
32.774758098871217
 20
-2.789730392840978
 30
0.0
 42
-0.004913877051448
  0
VERTEX
  5
179D
  8
0
 10
32.817590518937401
 20
-2.7868146966502501
 30
0.0
 42
-0.0030197186842147
 70
     1
  0
VERTEX
  5
179E
  8
0
 10
32.887355597127637
 20
-2.783176627517717
 30
0.0
 42
-0.0080578604173985
  0
VERTEX
  5
179F
  8
0
 10
33.00202721287954
 20
-2.7797417086109202
 30
0.0
 42
-0.0126107019287317
 70
     1
  0
VERTEX
  5
17A0
  8
0
 10
33.07533394399627
 20
-2.7805767082380721
 30
0.0
 42
-0.0007554617321679
  0
VERTEX
  5
17A1
  8
0
 10
33.154175930614862
 20
-2.783583699412318
 30
0.0
 42
0.0002078276299903
 70
     1
  0
VERTEX
  5
17A2
  8
0
 10
33.233017917233447
 20
-2.7865906905865629
 30
0.0
 42
0.0005828912063452
  0
VERTEX
  5
17A3
  8
0
 10
33.462188044226338
 20
-2.794968192746913
 30
0.0
 42
-0.0007440480919842
 70
     1
  0
VERTEX
  5
17A4
  8
0
 10
33.691358171219242
 20
-2.8033456949072639
 30
0.0
 42
-0.0121608594413755
  0
VERTEX
  5
17A5
  8
0
 10
33.920410119741113
 20
-2.8176451975361161
 30
0.0
 42
-0.0067110298138396
 70
     1
  0
VERTEX
  5
17A6
  8
0
 10
34.334152532860656
 20
-2.8591957465539721
 30
0.0
 42
-0.0024737380906468
  0
VERTEX
  5
17A7
  8
0
 10
34.377671644169681
 20
-2.864375265085136
 30
0.0
 42
-0.0002974159913779
 70
     1
  0
VERTEX
  5
17A8
  8
0
 10
34.739392507745187
 20
-2.9094607595160582
 30
0.0
 42
-0.0070006794530681
  0
VERTEX
  5
17A9
  8
0
 10
34.85331833724544
 20
-2.9253525543993799
 30
0.0
 42
-0.0033836848509714
 70
     1
  0
VERTEX
  5
17AA
  8
0
 10
35.088282877845529
 20
-2.9631183191324562
 30
0.0
  0
SEQEND
  5
17AB
  8
0
  0
LINE
  5
17AC
  8
0
 10
32.088282877845529
 20
-3.056029557541307
 30
0.0
 11
32.088282877845543
 21
-2.928031700942328
 31
0.0
  0
LINE
  5
17AD
  8
0
 10
35.463282877845529
 20
-3.057118319132456
 30
0.0
 11
35.463282877845529
 21
-3.0321183191324561
 31
0.0
  0
LINE
  5
17AE
  8
0
 10
35.088282877845529
 20
-2.9631183191324562
 30
0.0
 11
35.463282877845529
 21
-3.0321183191324561
 31
0.0
  0
LINE
  5
17AF
  8
0
 10
35.088282877845529
 20
-3.057118319132456
 30
0.0
 11
35.088282877845529
 21
-2.9631183191324539
 31
0.0
  0
LINE
  5
17B1
  8
0
 10
35.463282877845529
 20
-3.057118319132456
 30
0.0
 11
35.463282877845529
 21
-3.3166812338307601
 31
0.0
  0
ARC
  5
17B3
  8
0
 10
28.364337266817738
 20
-22.209069918057761
 30
0.0
 40
19.511707407745359
 50
70.746139717192733
 51
78.997199031061172
  0
ARC
  5
17B4
  8
0
 10
34.963282877845529
 20
-3.316681233830773
 30
0.0
 40
0.5
 50
250.74613971719319
 51
0.0000000000016284
  0
SOLID
  5
17B5
  8
0
 62
     1
 10
35.621168415978332
 20
-3.2251817428566709
 30
0.0
 11
35.582958551979537
 21
-3.1789215408122011
 31
0.0
 12
35.463282877845529
 22
-3.3166812338307601
 32
0.0
 13
35.463282877845529
 23
-3.3166812338307601
 33
0.0
  0
LINE
  5
17B6
  8
0
 62
     1
 10
35.602063483978938
 20
-3.2020516418344358
 30
0.0
 11
37.142449580363433
 21
-1.9297281186497841
 31
0.0
  0
LINE
  5
17B7
  8
0
 62
     1
 10
37.142449580363433
 20
-1.9297281186497841
 30
0.0
 11
37.39370056267262
 21
-1.9297281186497841
 31
0.0
  0
INSERT
  5
17B8
  8
0
  2
*U4
 10
0.0
 20
0.0
 30
0.0
  0
LINE
  5
17B9
  8
GH
 10
29.476686348838669
 20
1.522978879075914
 30
0.0
 11
29.476686348838669
 21
1.147978879075914
 31
0.0
  0
SOLID
  5
17BA
  8
0
 62
     1
 10
29.350421993907428
 20
1.016231724746895
 30
0.0
 11
29.399975900983389
 21
0.9824025909491384
 31
0.0
 12
29.476686348838669
 22
1.147978879075914
 32
0.0
 13
29.476686348838669
 23
1.147978879075914
 33
0.0
  0
LINE
  5
17BB
  8
0
 62
     1
 10
29.375198947445401
 20
0.999317157848017
 30
0.0
 11
28.695375744685158
 21
0.0034921976505515
 31
0.0
  0
LINE
  5
17BC
  8
0
 62
     1
 10
28.695375744685158
 20
0.0034921976505515
 30
0.0
 11
28.562249406251428
 21
0.0034921976505515
 31
0.0
  0
INSERT
  5
17BD
  8
0
  2
*U5
 10
0.0
 20
0.0
 30
0.0
  0
LINE
  5
17BF
  8
0
 10
31.838282877845529
 20
-2.432118319132456
 30
0.0
 11
31.338282877845529
 21
-2.932118319132456
 31
0.0
  0
LINE
  5
17C2
  8
0
 10
37.932244815450808
 20
0.3931820847869067
 30
0.0
 11
37.932244815450808
 21
0.4561820847869078
 31
0.0
  0
LINE
  5
17C3
  8
0
 10
36.954744815450809
 20
0.3931820847869063
 30
0.0
 11
36.954744815450809
 21
0.4561820847869071
 31
0.0
  0
LINE
  5
17C4
  8
0
 10
37.869244815450813
 20
0.3931820847869067
 30
0.0
 11
37.869244815450813
 21
0.4561820847869071
 31
0.0
  0
LINE
  5
17C5
  8
0
 10
36.891744815450807
 20
0.3931820847869063
 30
0.0
 11
36.891744815450807
 21
0.4561820847869071
 31
0.0
  0
LINE
  5
17C6
  8
0
 10
36.891744815450807
 20
0.4561820847869066
 30
0.0
 11
36.954744815450809
 21
0.4561820847869066
 31
0.0
  0
LINE
  5
17C7
  8
0
 10
37.869244815450813
 20
0.4561820847869071
 30
0.0
 11
37.932244815450808
 21
0.4561820847869075
 31
0.0
  0
LINE
  5
17F6
  8
0
 10
36.954744815450809
 20
0.6054077044064288
 30
0.0
 11
36.954744815450809
 21
0.6684518296968829
 31
0.0
  0
LINE
  5
17F7
  8
0
 10
36.891744815450807
 20
0.6025234094640584
 30
0.0
 11
36.891744815450807
 21
0.6656077725134919
 31
0.0
  0
LINE
  5
17F9
  8
0
 10
37.932244815450801
 20
0.5714348746932583
 30
0.0
 11
37.932244815450801
 21
0.6346482925749273
 31
0.0
  0
LINE
  5
17FA
  8
0
 10
37.869244815450813
 20
0.5762299240566307
 30
0.0
 11
37.869244815450813
 21
0.6393789556805425
 31
0.0
  0
POLYLINE
  5
1821
  8
0
 66
     1
 10
0.0
 20
0.0
 30
0.0
  0
VERTEX
  5
26CB
  8
0
 10
37.869244815450813
 20
0.57622992405663
 30
0.0
 42
-0.0033928032976296
  0
VERTEX
  5
26CC
  8
0
 10
37.932244815450801
 20
0.5714348746932579
 30
0.0
 42
-0.0067110298138458
  0
SEQEND
  5
26CD
  8
0
  0
POLYLINE
  5
1825
  8
0
 66
     1
 10
0.0
 20
0.0
 30
0.0
  0
VERTEX
  5
26CE
  8
0
 10
36.891744815450807
 20
0.6025234094640588
 30
0.0
 42
-0.0014864667329456
  0
VERTEX
  5
26CF
  8
0
 10
36.925718339983291
 20
0.6041905949398796
 30
0.0
 42
-0.002077178290677
  0
VERTEX
  5
26D0
  8
0
 10
36.954744815450809
 20
0.6054077044064288
 30
0.0
 42
-0.0126107019287215
  0
SEQEND
  5
26D1
  8
0
  0
POLYLINE
  5
18D6
  8
0
 66
     1
 10
0.0
 20
0.0
 30
0.0
  0
VERTEX
  5
26D2
  8
0
 10
10.33165213531295
 20
-2.1983164359247152
 30
0.0
  0
VERTEX
  5
26D3
  8
0
 10
10.352382398449491
 20
-2.060452488362297
 30
0.0
  0
VERTEX
  5
26D4
  8
0
 10
10.377998301769839
 20
-1.9169860121017841
 30
0.0
  0
VERTEX
  5
26D5
  8
0
 10
10.40741068990696
 20
-1.768930581565975
 30
0.0
  0
VERTEX
  5
26D6
  8
0
 10
10.43953040749385
 20
-1.6172997711776651
 30
0.0
  0
VERTEX
  5
26D7
  8
0
 10
10.47326829916344
 20
-1.4631071553596511
 30
0.0
  0
VERTEX
  5
26D8
  8
0
 10
10.507535209548699
 20
-1.307366308534734
 30
0.0
  0
VERTEX
  5
26D9
  8
0
 10
10.541241983282619
 20
-1.1510908051257089
 30
0.0
  0
VERTEX
  5
26DA
  8
0
 10
10.573299464998151
 20
-0.9952942195553756
 30
0.0
  0
VERTEX
  5
26DB
  8
0
 10
10.602825957443191
 20
-0.8408160149142956
 30
0.0
  0
VERTEX
  5
26DC
  8
0
 10
10.62976959582527
 20
-0.6877992089641059
 30
0.0
  0
VERTEX
  5
26DD
  8
0
 10
10.65428597346687
 20
-0.5362127081342082
 30
0.0
  0
VERTEX
  5
26DE
  8
0
 10
10.676530683690469
 20
-0.3860254188540053
 30
0.0
  0
VERTEX
  5
26DF
  8
0
 10
10.69665931981852
 20
-0.2372062475528994
 30
0.0
  0
VERTEX
  5
26E0
  8
0
 10
10.7148274751735
 20
-0.0897241006602928
 30
0.0
  0
VERTEX
  5
26E1
  8
0
 10
10.73119074307788
 20
0.0564521153944121
 30
0.0
  0
VERTEX
  5
26E2
  8
0
 10
10.74590471685412
 20
0.2013534941818129
 30
0.0
  0
VERTEX
  5
26E3
  8
0
 10
10.75911461703563
 20
0.3450888632535514
 30
0.0
  0
VERTEX
  5
26E4
  8
0
 10
10.77092417299952
 20
0.4880779860854461
 30
0.0
  0
VERTEX
  5
26E5
  8
0
 10
10.781426741333849
 20
0.6308183601343596
 30
0.0
  0
VERTEX
  5
26E6
  8
0
 10
10.79071567862664
 20
0.7738074828571541
 30
0.0
  0
VERTEX
  5
26E7
  8
0
 10
10.798884341465961
 20
0.9175428517106921
 30
0.0
  0
VERTEX
  5
26E8
  8
0
 10
10.80602608643985
 20
1.0625219641518351
 30
0.0
  0
VERTEX
  5
26E9
  8
0
 10
10.81223427013636
 20
1.20924231763745
 30
0.0
  0
VERTEX
  5
26EA
  8
0
 10
10.81760224914354
 20
1.358201409624394
 30
0.0
  0
VERTEX
  5
26EB
  8
0
 10
10.82218707475225
 20
1.5096376242812031
 30
0.0
  0
VERTEX
  5
26EC
  8
0
 10
10.825900577064671
 20
1.662752892623083
 30
0.0
  0
VERTEX
  5
26ED
  8
0
 10
10.8286182808858
 20
1.816490032376916
 30
0.0
  0
VERTEX
  5
26EE
  8
0
 10
10.83021571102063
 20
1.9697918612695811
 30
0.0
  0
VERTEX
  5
26EF
  8
0
 10
10.83056839227417
 20
2.121601197027958
 30
0.0
  0
VERTEX
  5
26F0
  8
0
 10
10.8295518494514
 20
2.270860857378922
 30
0.0
  0
VERTEX
  5
26F1
  8
0
 10
10.827041607357341
 20
2.4165136600493562
 30
0.0
  0
VERTEX
  5
26F2
  8
0
 10
10.822913190796969
 20
2.5575024227661389
 30
0.0
  0
VERTEX
  5
26F3
  8
0
 10
10.817104362108861
 20
2.692832150397344
 30
0.0
  0
VERTEX
  5
26F4
  8
0
 10
10.809801833765871
 20
2.8217565963758271
 30
0.0
  0
VERTEX
  5
26F5
  8
0
 10
10.80125455577438
 20
2.9435917012756381
 30
0.0
  0
VERTEX
  5
26F6
  8
0
 10
10.79171147814084
 20
3.0576534056708282
 30
0.0
  0
VERTEX
  5
26F7
  8
0
 10
10.78142155087165
 20
3.1632576501354461
 30
0.0
  0
VERTEX
  5
26F8
  8
0
 10
10.770633723973219
 20
3.2597203752435471
 30
0.0
  0
VERTEX
  5
26F9
  8
0
 10
10.759596947451961
 20
3.3463575215691761
 30
0.0
  0
VERTEX
  5
26FA
  8
0
 10
10.748560171314301
 20
3.4224850296863871
 30
0.0
  0
VERTEX
  5
26FB
  8
0
 10
10.737710108065039
 20
3.4877556875658859
 30
0.0
  0
VERTEX
  5
26FC
  8
0
 10
10.726984520202571
 20
3.5431696727650182
 30
0.0
  0
VERTEX
  5
26FD
  8
0
 10
10.716258932723701
 20
3.5900640102377839
 30
0.0
  0
VERTEX
  5
26FE
  8
0
 10
10.70540887062521
 20
3.6297757249381828
 30
0.0
  0
VERTEX
  5
26FF
  8
0
 10
10.6943098589039
 20
3.663641841820215
 30
0.0
  0
VERTEX
  5
2700
  8
0
 10
10.68283742255656
 20
3.6929993858378811
 30
0.0
  0
VERTEX
  5
2701
  8
0
 10
10.67086708657996
 20
3.719185381945183
 30
0.0
  0
VERTEX
  5
2702
  8
0
 10
10.658274375970951
 20
3.7435368550961212
 30
0.0
  0
VERTEX
  5
2703
  8
0
 10
10.64495556152818
 20
3.7671524459670631
 30
0.0
  0
VERTEX
  5
2704
  8
0
 10
10.63088989725796
 20
3.7901772581238471
 30
0.0
  0
VERTEX
  5
2705
  8
0
 10
10.6160773829685
 20
3.8125180108546819
 30
0.0
  0
VERTEX
  5
2706
  8
0
 10
10.600518018468
 20
3.8340814234477758
 30
0.0
  0
VERTEX
  5
2707
  8
0
 10
10.584211803564671
 20
3.8547742151913349
 30
0.0
  0
VERTEX
  5
2708
  8
0
 10
10.567158738066709
 20
3.874503105373563
 30
0.0
  0
VERTEX
  5
2709
  8
0
 10
10.549358821782331
 20
3.8931748132826729
 30
0.0
  0
VERTEX
  5
270A
  8
0
 10
10.530812054519741
 20
3.9106960582068702
 30
0.0
  0
VERTEX
  5
270B
  8
0
 10
10.511523622649481
 20
3.926994406148641
 30
0.0
  0
VERTEX
  5
270C
  8
0
 10
10.491519458791551
 20
3.9420808099676061
 30
0.0
  0
VERTEX
  5
270D
  8
0
 10
10.47083068212828
 20
3.9559870692376649
 30
0.0
  0
VERTEX
  5
270E
  8
0
 10
10.44948841184204
 20
3.9687449835327211
 30
0.0
  0
VERTEX
  5
270F
  8
0
 10
10.42752376711514
 20
3.980386352426672
 30
0.0
  0
VERTEX
  5
2710
  8
0
 10
10.40496786712993
 20
3.990942975493418
 30
0.0
  0
VERTEX
  5
2711
  8
0
 10
10.38185183106876
 20
4.000446652306862
 30
0.0
  0
VERTEX
  5
2712
  8
0
 10
10.35820677811396
 20
4.0089291824408999
 30
0.0
  0
VERTEX
  5
2713
  8
0
 10
10.33407938668743
 20
4.016401165717137
 30
0.0
  0
VERTEX
  5
2714
  8
0
 10
10.309578572169221
 20
4.0227884029479686
 30
0.0
  0
VERTEX
  5
2715
  8
0
 10
10.28482880917897
 20
4.0279954951934931
 30
0.0
  0
VERTEX
  5
2716
  8
0
 10
10.25995457233628
 20
4.0319270435138099
 30
0.0
  0
VERTEX
  5
2717
  8
0
 10
10.235080336260779
 20
4.0344876489690167
 30
0.0
  0
VERTEX
  5
2718
  8
0
 10
10.210330575572071
 20
4.035581912619211
 30
0.0
  0
VERTEX
  5
2719
  8
0
 10
10.185829764889769
 20
4.0351144355244921
 30
0.0
  0
VERTEX
  5
271A
  8
0
 10
10.16170237883351
 20
4.0329898187449551
 30
0.0
  0
VERTEX
  5
271B
  8
0
 10
10.13805214625294
 20
4.0291185516603187
 30
0.0
  0
VERTEX
  5
271C
  8
0
 10
10.114899812918051
 20
4.023434676928777
 30
0.0
  0
VERTEX
  5
271D
  8
0
 10
10.09224537882878
 20
4.0158781255281459
 30
0.0
  0
VERTEX
  5
271E
  8
0
 10
10.070088843985159
 20
4.006388828436239
 30
0.0
  0
VERTEX
  5
271F
  8
0
 10
10.048430208387201
 20
3.9949067166308652
 30
0.0
  0
VERTEX
  5
2720
  8
0
 10
10.02726947203487
 20
3.9813717210898441
 30
0.0
  0
VERTEX
  5
2721
  8
0
 10
10.0066066349282
 20
3.9657237727909842
 30
0.0
  0
VERTEX
  5
2722
  8
0
 10
9.9864416970671677
 20
3.947902802712103
 30
0.0
  0
VERTEX
  5
2723
  8
0
 10
9.9667694720172921
 20
3.9278016307153312
 30
0.0
  0
VERTEX
  5
2724
  8
0
 10
9.9475640276061092
 20
3.9051246322000721
 30
0.0
  0
VERTEX
  5
2725
  8
0
 10
9.9287942452266584
 20
3.879529071450047
 30
0.0
  0
VERTEX
  5
2726
  8
0
 10
9.9104290062719915
 20
3.850672212748981
 30
0.0
  0
VERTEX
  5
2727
  8
0
 10
9.8924371921351462
 20
3.8182113203805961
 30
0.0
  0
VERTEX
  5
2728
  8
0
 10
9.8747876842091742
 20
3.7818036586286148
 30
0.0
  0
VERTEX
  5
2729
  8
0
 10
9.8574493638871186
 20
3.7411064917767569
 30
0.0
  0
VERTEX
  5
272A
  8
0
 10
9.8403911125620152
 20
3.6957770841087481
 30
0.0
  0
VERTEX
  5
272B
  8
0
 10
9.8235973709623678
 20
3.6455660983782359
 30
0.0
  0
VERTEX
  5
272C
  8
0
 10
9.8071148171584284
 20
3.590597791218578
 30
0.0
  0
VERTEX
  5
272D
  8
0
 10
9.791005688555904
 20
3.5310898177330561
 30
0.0
  0
VERTEX
  5
272E
  8
0
 10
9.7753322225605022
 20
3.4672598330249551
 30
0.0
  0
VERTEX
  5
272F
  8
0
 10
9.7601566565779265
 20
3.399325492197558
 30
0.0
  0
VERTEX
  5
2730
  8
0
 10
9.7455412280138862
 20
3.327504450354148
 30
0.0
  0
VERTEX
  5
2731
  8
0
 10
9.7315481742740833
 20
3.2520143625980111
 30
0.0
  0
VERTEX
  5
2732
  8
0
 10
9.7182397327642231
 20
3.1730728840324272
 30
0.0
  0
VERTEX
  5
2733
  8
0
 10
9.705672954423564
 20
3.0908924875534649
 30
0.0
  0
VERTEX
  5
2734
  8
0
 10
9.693884144325505
 20
3.0056649172283301
 30
0.0
  0
VERTEX
  5
2735
  8
0
 10
9.6829044210770103
 20
2.9175767349170041
 30
0.0
  0
VERTEX
  5
2736
  8
0
 10
9.672764903285028
 20
2.8268145024794791
 30
0.0
  0
VERTEX
  5
2737
  8
0
 10
9.6634967095565223
 20
2.7335647817757391
 30
0.0
  0
VERTEX
  5
2738
  8
0
 10
9.6551309584984395
 20
2.638014134665768
 30
0.0
  0
VERTEX
  5
2739
  8
0
 10
9.6476987687177438
 20
2.5403491230095581
 30
0.0
  0
VERTEX
  5
273A
  8
0
 10
9.6412312588213833
 20
2.4407563086670909
 30
0.0
  0
VERTEX
  5
273B
  8
0
 10
9.6357439881128357
 20
2.3394015243603761
 30
0.0
  0
VERTEX
  5
273C
  8
0
 10
9.6311902786816717
 20
2.2363676862594861
 30
0.0
  0
VERTEX
  5
273D
  8
0
 10
9.6275078933139824
 20
2.1317169813965191
 30
0.0
  0
VERTEX
  5
273E
  8
0
 10
9.624634594795852
 20
2.0255115968035682
 30
0.0
  0
VERTEX
  5
273F
  8
0
 10
9.6225081459133737
 20
1.9178137195127281
 30
0.0
  0
VERTEX
  5
2740
  8
0
 10
9.6210663094526314
 20
1.8086855365560961
 30
0.0
  0
VERTEX
  5
2741
  8
0
 10
9.6202468481997254
 20
1.698189234965763
 30
0.0
  0
VERTEX
  5
2742
  8
0
 10
9.6199875249407345
 20
1.5863870017738291
 30
0.0
  0
VERTEX
  5
2743
  8
0
 10
9.6202416617652329
 20
1.473330659507035
 30
0.0
  0
VERTEX
  5
2744
  8
0
 10
9.6210248179766946
 20
1.359030572670735
 30
0.0
  0
VERTEX
  5
2745
  8
0
 10
9.6223681121820714
 20
1.2434867412649251
 30
0.0
  0
VERTEX
  5
2746
  8
0
 10
9.6243026629883275
 20
1.126699165289605
 30
0.0
  0
VERTEX
  5
2747
  8
0
 10
9.6268595890024162
 20
1.0086678447447781
 30
0.0
  0
VERTEX
  5
2748
  8
0
 10
9.6300700088312876
 20
0.8893927796304442
 30
0.0
  0
VERTEX
  5
2749
  8
0
 10
9.6339650410818969
 20
0.7688739699466005
 30
0.0
  0
VERTEX
  5
274A
  8
0
 10
9.6385758043612029
 20
0.6471114156932482
 30
0.0
  0
VERTEX
  5
274B
  8
0
 10
9.6439282308097045
 20
0.5241673041024998
 30
0.0
  0
VERTEX
  5
274C
  8
0
 10
9.6500275067020613
 20
0.4003525713349154
 30
0.0
  0
VERTEX
  5
274D
  8
0
 10
9.6568736318464765
 20
0.2760403407831678
 30
0.0
  0
VERTEX
  5
274E
  8
0
 10
9.6644666060511586
 20
0.1516037358399296
 30
0.0
  0
VERTEX
  5
274F
  8
0
 10
9.6728064291243072
 20
0.0274158798978734
 30
0.0
  0
VERTEX
  5
2750
  8
0
 10
9.6818931008741291
 20
-0.0961501036503284
 30
0.0
  0
VERTEX
  5
2751
  8
0
 10
9.6917266211088346
 20
-0.2187210914120031
 30
0.0
  0
VERTEX
  5
2752
  8
0
 10
9.7023069896366234
 20
-0.3399239599944781
 30
0.0
  0
VERTEX
  5
2753
  8
0
 10
9.7136134605437103
 20
-0.4594607289370671
 30
0.0
  0
VERTEX
  5
2754
  8
0
 10
9.7255423050283678
 20
-0.5773339895070283
 30
0.0
  0
VERTEX
  5
2755
  8
0
 10
9.7379690485668764
 20
-0.6936214759036067
 30
0.0
  0
VERTEX
  5
2756
  8
0
 10
9.7507692166355167
 20
-0.8084009223260465
 30
0.0
  0
VERTEX
  5
2757
  8
0
 10
9.7638183347105674
 20
-0.9217500629735932
 30
0.0
  0
VERTEX
  5
2758
  8
0
 10
9.7769919282683198
 20
-1.0337466320454889
 30
0.0
  0
VERTEX
  5
2759
  8
0
 10
9.7901655227850473
 20
-1.144468363740982
 30
0.0
  0
VERTEX
  5
275A
  8
0
 10
9.8032146437370304
 20
-1.253992992259316
 30
0.0
  0
VERTEX
  5
275B
  8
0
 10
9.8160407486771195
 20
-1.3633258775468831
 30
0.0
  0
VERTEX
  5
275C
  8
0
 10
9.8286490234644184
 20
-1.477182882538663
 30
0.0
  0
VERTEX
  5
275D
  8
0
 10
9.8410705860346042
 20
-1.601207495916787
 30
0.0
  0
VERTEX
  5
275E
  8
0
 10
9.8533365543233415
 20
-1.7410432063633861
 30
0.0
  0
VERTEX
  5
275F
  8
0
 10
9.8654780462663023
 20
-1.9023335025605881
 30
0.0
  0
VERTEX
  5
2760
  8
0
 10
9.87752617979916
 20
-2.0907218731905211
 30
0.0
  0
VERTEX
  5
2761
  8
0
 10
9.8833581216840081
 20
-2.1983164359247152
 30
0.0
  0
SEQEND
  5
2762
  8
0
  0
LINE
  5
1968
  8
0
 10
11.806282877845531
 20
-2.857036711421995
 30
0.0
 11
11.806282877845531
 21
-1.0662126965568131
 31
0.0
  0
LINE
  5
1A00
  8
0
 10
5.5081852417634121
 20
-2.248316435924715
 30
0.0
 11
6.8511852417634129
 21
-2.248316435924715
 31
0.0
  0
LINE
  5
1A01
  8
0
 10
5.5081852417634121
 20
-2.1483164359247162
 30
0.0
 11
6.851185241763412
 21
-2.1483164359247162
 31
0.0
  0
LINE
  5
1A02
  8
0
 10
4.9224512612561719
 20
-2.228316435924715
 30
0.0
 11
5.3659329184884932
 21
-2.228316435924715
 31
0.0
  0
LINE
  5
1A03
  8
0
 10
4.9224512612561746
 20
-2.1683164359247158
 30
0.0
 11
5.3659329184884932
 21
-2.1683164359247158
 31
0.0
  0
ARC
  5
1A04
  8
0
 10
7.6365671410345257
 20
2.4012339372572882
 30
0.0
 40
5.3165999419238572
 50
253.46501071158019
 51
261.50502985268531
  0
ARC
  5
1A15
  8
0
 10
6.1920426298525353
 20
-1.6992051646763251
 30
0.0
 40
0.9570421365130805
 50
230.094281628348
 51
246.03104075089271
  0
ARC
  5
1A16
  8
0
 10
7.258651528673826
 20
0.7710360491155484
 30
0.0
 40
3.6476791053453712
 50
246.4847442458304
 51
251.86785254737481
  0
ARC
  5
1A17
  8
0
 10
5.727696611005662
 20
-2.26627441482418
 30
0.0
 40
0.2242809859007444
 50
191.8373860017202
 51
228.15508492653001
  0
LINE
  5
1A18
  8
0
 10
5.5081852417634121
 20
-2.1983164359247152
 30
0.0
 11
5.5081852417634121
 21
-2.3122822338335922
 31
0.0
  0
LINE
  5
1A19
  8
0
 10
7.1331852417634121
 20
-1.186603237353649
 30
0.0
 11
7.1331852417634121
 21
-2.7353219148048198
 31
0.0
  0
LINE
  5
1A1A
  8
0
 10
6.8511852417634147
 20
-2.857036711421995
 30
0.0
 11
6.851185241763412
 21
-1.0662126965568131
 31
0.0
  0
LINE
  5
1A1D
  8
0
 10
6.8511852417634129
 20
-2.7353219148048189
 30
0.0
 11
7.1331852417634121
 21
-2.7353219148048198
 31
0.0
  0
LINE
  5
1A1E
  8
0
 10
6.851185241763412
 20
-1.186603237353649
 30
0.0
 11
7.1331852417634121
 21
-1.186603237353649
 31
0.0
  0
LINE
  5
1A2E
  8
0
 10
5.5081852417634121
 20
-2.248316435924715
 30
0.0
 11
5.5081852417634121
 21
-2.1483164359247162
 31
0.0
  0
LINE
  5
1A2F
  8
0
 10
5.5081852417634121
 20
-2.1483164359247162
 30
0.0
 11
5.5081852417634121
 21
-2.0955535181624239
 31
0.0
  0
LINE
  5
1A30
  8
0
 10
5.5081852417634121
 20
-2.0955535181624239
 30
0.0
 11
5.4877021291282642
 21
-2.0955535181624239
 31
0.0
  0
LINE
  5
1A31
  8
0
 10
5.4877021291282642
 20
-2.0955535181624239
 30
0.0
 11
5.4877021291282642
 21
-2.1983164359247152
 31
0.0
  0
LINE
  5
1A32
  8
0
 10
5.4877021291282642
 20
-2.3010793536870069
 30
0.0
 11
5.4877021291282642
 21
-2.1983164359247152
 31
0.0
  0
LINE
  5
1A33
  8
0
 10
5.5081852417634121
 20
-2.3010793536870069
 30
0.0
 11
5.4877021291282642
 21
-2.3010793536870069
 31
0.0
  0
LINE
  5
1A34
  8
0
 10
5.5081852417634121
 20
-2.248316435924715
 30
0.0
 11
5.5081852417634121
 21
-2.3010793536870069
 31
0.0
  0
LINE
  5
1A35
  8
0
 10
5.3979329184884941
 20
-1.9675192431411841
 30
0.0
 11
5.3979329184884932
 21
-2.1983164359247152
 31
0.0
  0
LINE
  5
1A36
  8
0
 10
5.4184160311236402
 20
-2.0955535181624239
 30
0.0
 11
5.3979329184884932
 21
-2.0955535181624239
 31
0.0
  0
LINE
  5
1A37
  8
0
 10
5.4184160311236393
 20
-2.1983164359247152
 30
0.0
 11
5.4184160311236402
 21
-2.0955535181624239
 31
0.0
  0
LINE
  5
1A38
  8
0
 10
5.4184160311236402
 20
-2.3010793536870069
 30
0.0
 11
5.3979329184884932
 21
-2.3010793536870069
 31
0.0
  0
LINE
  5
1A39
  8
0
 10
5.3979329184884923
 20
-2.4291136287082482
 30
0.0
 11
5.3979329184884932
 21
-2.1983164359247152
 31
0.0
  0
LINE
  5
1A3A
  8
0
 10
5.4184160311236393
 20
-2.1983164359247152
 30
0.0
 11
5.4184160311236402
 21
-2.3010793536870069
 31
0.0
  0
LINE
  5
1A3B
  8
0
 10
5.4184160311236402
 20
-2.1683164359247149
 30
0.0
 11
5.4877021291282642
 21
-2.1683164359247149
 31
0.0
  0
LINE
  5
1A3C
  8
0
 10
5.4184160311236367
 20
-2.228316435924715
 30
0.0
 11
5.4877021291282642
 21
-2.228316435924715
 31
0.0
  0
LINE
  5
1A3D
  8
0
 10
5.5081852417634121
 20
-2.1683164359247149
 30
0.0
 11
7.2099275811830381
 21
-2.1683164359247158
 31
0.0
  0
LINE
  5
1A3E
  8
0
 10
5.5081852417634121
 20
-2.228316435924715
 30
0.0
 11
7.2099275811830381
 21
-2.228316435924715
 31
0.0
  0
CIRCLE
  5
1A4F
  8
0
 10
5.45305908012595
 20
-2.26295948492703
 30
0.0
 40
0.0346430490023142
  0
CIRCLE
  5
1A50
  8
0
 10
5.45305908012595
 20
-2.1336733869224012
 30
0.0
 40
0.0346430490023142
  0
LINE
  5
1A51
  8
0
 10
5.3659329184884932
 20
-1.9675192431411841
 30
0.0
 11
5.3659329184884932
 21
-2.1983164359247152
 31
0.0
  0
LINE
  5
1A52
  8
0
 10
5.3979329184884941
 20
-1.9675192431411841
 30
0.0
 11
5.3659329184884932
 21
-1.9675192431411841
 31
0.0
  0
LINE
  5
1A53
  8
0
 10
5.3659329184884932
 20
-2.4291136287082482
 30
0.0
 11
5.3659329184884932
 21
-2.1983164359247152
 31
0.0
  0
LINE
  5
1AE8
  8
0
 10
4.9224512612561719
 20
-2.248316435924715
 30
0.0
 11
5.3659329184884932
 21
-2.2483164359247141
 31
0.0
  0
LINE
  5
1AE9
  8
0
 10
5.5401852417634112
 20
-2.3893250021511232
 30
0.0
 11
5.5401852417634121
 21
-2.0352913350112232
 31
0.0
  0
LINE
  5
1AEA
  8
0
 10
5.5081852417634121
 20
-2.0955535181624239
 30
0.0
 11
5.5401852417634121
 21
-2.0352913350112232
 31
0.0
  0
POLYLINE
  5
1AEB
  8
0
 66
     1
 10
0.0
 20
0.0
 30
0.0
  0
VERTEX
  5
2763
  8
0
 10
5.5401852417634121
 20
-2.0352913350112209
 30
0.0
 42
-0.0394496681817875
  0
VERTEX
  5
2764
  8
0
 10
5.5577564416084604
 20
-1.997319594585782
 30
0.0
 42
-0.0211458727768774
  0
VERTEX
  5
2765
  8
0
 10
5.6637270453636486
 20
-1.826227177239345
 30
0.0
 42
-0.0388113348840876
  0
VERTEX
  5
2766
  8
0
 10
5.732269170160035
 20
-1.74049213014754
 30
0.0
 42
-0.0143047348889624
  0
VERTEX
  5
2767
  8
0
 10
5.8501740305316599
 20
-1.621451678239167
 30
0.0
 42
-0.0207510311071053
  0
VERTEX
  5
2768
  8
0
 10
5.937019824937904
 20
-1.5452686306083321
 30
0.0
 42
-0.0146644899542372
  0
VERTEX
  5
2769
  8
0
 10
6.0683609721211411
 20
-1.44557492882329
 30
0.0
 42
-0.015400288130955
  0
VERTEX
  5
276A
  8
0
 10
6.1989080329651554
 20
-1.3583290800783741
 30
0.0
 42
-0.0174614731053536
  0
VERTEX
  5
276B
  8
0
 10
6.2559401823311287
 20
-1.3254150256422701
 30
0.0
 42
-0.0038819138382695
  0
VERTEX
  5
276C
  8
0
 10
6.5184876628441124
 20
-1.1884834548167591
 30
0.0
 42
-0.03182058347449
  0
VERTEX
  5
276D
  8
0
 10
6.6492612667251958
 20
-1.1317454338508091
 30
0.0
 42
-0.0159603277931898
  0
VERTEX
  5
276E
  8
0
 10
6.851185241763412
 20
-1.0662126965568131
 30
0.0
  0
SEQEND
  5
276F
  8
0
  0
LINE
  5
1AFA
  8
0
 10
7.8713937870196249
 20
-2.1683164359247158
 30
0.0
 11
7.8713937870196284
 21
-2.3820954909404222
 31
0.0
  0
LINE
  5
1AFC
  8
0
 10
7.2499874612556869
 20
-2.2399113414246279
 30
0.0
 11
7.6596836076859498
 21
-2.498760864820583
 31
0.0
  0
ARC
  5
1B02
  8
0
 10
7.2099275811830381
 20
-2.3033164359247151
 30
0.0
 40
0.075
 50
57.71495308368511
 51
90.0
  0
ARC
  5
1B04
  8
0
 10
7.733393787019625
 20
-2.3820954909404222
 30
0.0
 40
0.138
 50
237.7149530836852
 51
0.0000000000000763
  0
LINE
  5
1B05
  8
0
 10
6.9966070632559632
 20
-2.1053164359247161
 30
0.0
 11
7.2146758550958703
 21
-2.1053164359247161
 31
0.0
  0
LINE
  5
1B07
  8
0
 10
6.9966070632559632
 20
-2.1053164359247161
 30
0.0
 11
6.9966070632559632
 21
-2.1653164359247161
 31
0.0
  0
LINE
  5
1B0A
  8
0
 10
7.8713937870196249
 20
-2.1683164359247149
 30
0.0
 11
7.8713937870196284
 21
-1.954537380909011
 31
0.0
  0
ARC
  5
1B0D
  8
0
 10
7.733393787019625
 20
-1.954537380909011
 30
0.0
 40
0.138
 50
359.99999999999977
 51
122.2850469163148
  0
LINE
  5
1B0E
  8
0
 10
7.2547357351685182
 20
-2.0937215304248031
 30
0.0
 11
7.6596836076859498
 21
-1.837872007028849
 31
0.0
  0
ARC
  5
1B10
  8
0
 10
7.2146758550958703
 20
-2.030316435924715
 30
0.0
 40
0.075
 50
270.0
 51
302.28504691631491
  0
LINE
  5
1B12
  8
0
 10
7.2820353653138064
 20
-2.1891872658245601
 30
0.0
 11
7.6917315117440701
 21
-2.448036789220513
 31
0.0
  0
LINE
  5
1B13
  8
0
 10
7.8113937870196271
 20
-2.1683164359247158
 30
0.0
 11
7.8113937870196279
 21
-2.3820954909404222
 31
0.0
  0
LINE
  5
1B14
  8
0
 10
7.8113937870196271
 20
-2.168316435924714
 30
0.0
 11
7.8113937870196279
 21
-1.954537380909011
 31
0.0
  0
LINE
  5
1B15
  8
0
 10
7.2867836392266376
 20
-2.1444456060248722
 30
0.0
 11
7.6917315117440701
 21
-1.8885960826289181
 31
0.0
  0
ARC
  5
1B16
  8
0
 10
7.733393787019625
 20
-1.954537380909011
 30
0.0
 40
0.0780000000000004
 50
359.99999999999977
 51
122.2850469163148
  0
ARC
  5
1B17
  8
0
 10
7.733393787019625
 20
-2.3820954909404222
 30
0.0
 40
0.0780000000000004
 50
237.7149530836852
 51
0.0000000000000763
  0
ARC
  5
1B18
  8
0
 10
7.2099275811830381
 20
-2.3033164359247151
 30
0.0
 40
0.1349999999999996
 50
57.71495308368511
 51
90.0
  0
ARC
  5
1B19
  8
0
 10
7.2146758550958703
 20
-2.030316435924715
 30
0.0
 40
0.1349999999999996
 50
270.0
 51
302.28504691631491
  0
LINE
  5
1B1A
  8
0
 10
7.2146758550958703
 20
-2.1653164359247161
 30
0.0
 11
6.9966070632559632
 21
-2.1653164359247161
 31
0.0
  0
LINE
  5
1B1B
  8
0
 10
4.9224512612561746
 20
-2.1483164359247162
 30
0.0
 11
5.3659329184884932
 21
-2.1483164359247162
 31
0.0
  0
LINE
  5
1B1C
  8
0
 10
4.9224512612561728
 20
-2.091140993225892
 30
0.0
 11
4.9224512612561746
 21
-2.1983164359247152
 31
0.0
  0
LINE
  5
1B1D
  8
0
 10
4.8904512612561728
 20
-2.0267045979621359
 30
0.0
 11
4.8904512612561746
 21
-2.1983164359247152
 31
0.0
  0
LINE
  5
1B1E
  8
0
 10
4.8904512612561728
 20
-2.0267045979621359
 30
0.0
 11
4.9154749869113203
 21
-1.9819938919525459
 31
0.0
  0
LINE
  5
1BB5
  8
0
 10
4.8904512612561746
 20
-2.3699282738872962
 30
0.0
 11
4.8904512612561746
 21
-2.1983164359247152
 31
0.0
  0
LINE
  5
1BB6
  8
0
 10
4.9224512612561728
 20
-2.3054918786235401
 30
0.0
 11
4.9224512612561746
 21
-2.1983164359247152
 31
0.0
  0
LINE
  5
1BB8
  8
0
 10
4.870451261256175
 20
-2.1315838456750229
 30
0.0
 11
4.870451261256175
 21
-2.1983164359247152
 31
0.0
  0
LINE
  5
1BB9
  8
0
 10
4.870451261256175
 20
-2.2650490261744078
 30
0.0
 11
4.870451261256175
 21
-2.1983164359247152
 31
0.0
  0
ARC
  5
1BBA
  8
0
 10
4.6934308908568951
 20
-2.1983164359247152
 30
0.0
 40
0.1170203703992811
 50
17.852903615249581
 51
355.42928820271362
  0
ARC
  5
1BBB
  8
0
 10
4.6934308908568951
 20
-2.1983164359247152
 30
0.0
 40
0.1770203703992812
 50
17.852903615249542
 51
351.50148697692242
  0
ARC
  5
1BBC
  8
0
 10
4.8952417861629911
 20
-2.1333164359247161
 30
0.0
 40
0.035
 50
197.8529036152492
 51
224.90317578751959
  0
ARC
  5
1BBD
  8
0
 10
4.8952417861629911
 20
-2.1333164359247161
 30
0.0
 40
0.095
 50
197.8529036152492
 51
254.8733890070626
  0
LINE
  5
1BBE
  8
0
 10
4.8704512612561741
 20
-2.2650490261744078
 30
0.0
 11
4.8904512612561728
 21
-2.2650490261744078
 31
0.0
  0
LINE
  5
1BBF
  8
0
 10
4.8100791065159267
 20
-2.207641717258197
 30
0.0
 11
4.8100791065159267
 21
-2.175415343218511
 31
0.0
  0
LINE
  5
1BC0
  8
0
 10
4.866538528495985
 20
-2.1533444912297459
 30
0.0
 11
4.8143961029464828
 21
-1.6172589345279991
 31
0.0
  0
LINE
  5
1BC1
  8
0
 10
4.7966410189175663
 20
-2.0544975185250962
 30
0.0
 11
4.7546779200190947
 21
-1.623067430706109
 31
0.0
  0
LINE
  5
1BC2
  8
0
 10
4.7681553417064144
 20
-1.6066857609297349
 30
0.0
 11
4.798014433170108
 21
-1.6037815128406789
 31
0.0
  0
LINE
  5
1BC3
  8
0
 10
4.7681553417064144
 20
-1.6066857609297349
 30
0.0
 11
4.7546779200190947
 21
-1.623067430706109
 31
0.0
  0
LINE
  5
1BC4
  8
0
 10
4.798014433170108
 20
-1.6037815128406789
 30
0.0
 11
4.8143961029464828
 21
-1.6172589345279991
 31
0.0
  0
LINE
  5
1BC5
  8
0
 10
4.7401455047170611
 20
-1.756271110907845
 30
0.0
 11
4.7676339918457087
 21
-1.756271110907845
 31
0.0
  0
LINE
  5
1BC6
  8
0
 10
4.7401455047170611
 20
-1.724271110907845
 30
0.0
 11
4.7645215080327707
 21
-1.724271110907845
 31
0.0
  0
LINE
  5
1BC8
  8
0
 10
4.7323107349463367
 20
-1.7484363411371211
 30
0.0
 11
4.7401455047170611
 21
-1.756271110907845
 31
0.0
  0
LINE
  5
1BC9
  8
0
 10
4.7323107349463367
 20
-1.7321058806785701
 30
0.0
 11
4.7401455047170611
 21
-1.724271110907845
 31
0.0
  0
LINE
  5
1BCA
  8
0
 10
4.7323107349463367
 20
-1.7484363411371211
 30
0.0
 11
4.7323107349463367
 21
-1.7321058806785701
 31
0.0
  0
LINE
  5
1BCB
  8
0
 10
4.8248046550330308
 20
-1.724271110907845
 30
0.0
 11
4.8306849604548772
 21
-1.724271110907847
 31
0.0
  0
LINE
  5
1BCC
  8
0
 10
4.8279171388459687
 20
-1.756271110907845
 30
0.0
 11
4.8306849604548772
 21
-1.756271110907845
 31
0.0
  0
LINE
  5
1BCD
  8
0
 10
4.870451261256175
 20
-2.1315838456750229
 30
0.0
 11
4.8904512612561746
 21
-2.1315838456750229
 31
0.0
  0
SOLID
  5
1BCE
  8
0
 62
     1
 10
7.7168069117785292
 20
-2.6720725151201141
 30
0.0
 11
7.7699283494922931
 21
-2.6441778408036272
 31
0.0
 12
7.6596836076859498
 22
-2.498760864820583
 32
0.0
 13
7.6596836076859498
 23
-2.498760864820583
 33
0.0
  0
LINE
  5
1BCF
  8
0
 62
     1
 10
7.7433676306354107
 20
-2.6581251779618702
 30
0.0
 11
8.0949315621034472
 21
-3.3276286565110591
 31
0.0
  0
LINE
  5
1BD0
  8
0
 62
     1
 10
8.0949315621034472
 20
-3.3276286565110591
 30
0.0
 11
8.4476889950365273
 21
-3.3276286565110591
 31
0.0
  0
INSERT
  5
1BD1
  8
0
  2
*U6
 10
0.0
 20
0.0
 30
0.0
  0
SOLID
  5
1BD2
  8
0
 62
     1
 10
6.661937639508376
 20
-2.4262820638307141
 30
0.0
 11
6.721837378156124
 21
-2.429749239905203
 31
0.0
 12
6.7022890370557189
 22
-2.2483164359247159
 32
0.0
 13
6.7022890370557189
 23
-2.2483164359247159
 33
0.0
  0
LINE
  5
1BD3
  8
0
 62
     1
 10
6.6918875088322523
 20
-2.4280156518679581
 30
0.0
 11
6.5359764474520681
 21
-5.1215713376261442
 31
0.0
  0
LINE
  5
1BD4
  8
0
 62
     1
 10
6.5359764474520681
 20
-5.1215713376261442
 30
0.0
 11
6.92934597985652
 21
-5.1215713376261442
 31
0.0
  0
INSERT
  5
1BD5
  8
0
  2
*U7
 10
0.0
 20
0.0
 30
0.0
  0
INSERT
  5
1BD6
  8
0
  2
*U8
 10
0.0
 20
0.0
 30
0.0
  0
INSERT
  5
1BD8
  8
0
  2
*U9
 10
0.0
 20
0.0
 30
0.0
  0
INSERT
  5
1BD9
  8
0
  2
*U10
 10
0.0
 20
0.0
 30
0.0
  0
INSERT
  5
1BDA
  8
0
  2
*U11
 10
0.0
 20
0.0
 30
0.0
  0
SOLID
  5
1BDB
  8
0
 62
     1
 10
33.920272113162952
 20
5.5927917821635988
 30
0.0
 11
33.951899428172972
 21
5.6437791624184879
 31
0.0
 12
33.783123629903301
 22
5.7131674173211211
 32
0.0
 13
33.783123629903301
 23
5.7131674173211211
 33
0.0
  0
LINE
  5
1BDC
  8
0
 62
     1
 10
33.936085770667958
 20
5.6182854722910438
 30
0.0
 11
34.479368127057512
 21
5.2812890990899728
 31
0.0
  0
LINE
  5
1BDD
  8
0
 62
     1
 10
34.479368127057512
 20
5.2812890990899728
 30
0.0
 11
34.929908457102641
 21
5.2812890990899728
 31
0.0
  0
INSERT
  5
1BDE
  8
0
  2
*U12
 10
0.0
 20
0.0
 30
0.0
  0
INSERT
  5
1BE4
  8
0
  6
CONTINUOUS
  2
*X13
 10
0.0
 20
0.0
 30
0.0
1001
ACAD
1000
HATCH
1002
{
1070
    19
1000
FLEX
1040
1.0
1040
1.570796326794895
1000
ASC_BOUNDS
1070
     1
1070
     1
1070
     4
1005
1145
1005
11F3
1005
1125
1005
114A
1000
ASC_SEEDPOINT
1011
12.48899031156321
1021
0.0
1031
0.0
1021
-1.9914593081970431
1031
0.0
1000
R14_HATCH_DATA
1000
1BE4
1011
1.0
1021
0.0
1031
0.0
1021
0.0
1031
0.0
1011
0.0
1021
0.0
1031
0.0
1021
1.0
1031
0.0
1011
0.0
1021
0.0
1031
0.0
1021
0.0
1031
1.0
1040
0.0
1010
0.0
1020
0.0
1030
1.0
1000
FLEX
1070
     0
1070
     1
1071
        1
1071
        7
1070
     1
1070
     1
1071
        4
1040
11.96328287784552
1040
-2.7536656281737959
1040
0.0192341348454345
1040
13.338282877845529
1040
-2.8968107403944341
1040
0.0
1040
13.338282877845529
1040
-0.7811978319482453
1040
0.0
1040
11.96328287784552
1040
-1.152819453569865
1040
0.0
1071
        4
1005
114A
1005
1125
1005
11F3
1005
1145
1070
     0
1070
     1
1040
1.570796326794895
1040
1.0
1070
     0
1070
     2
1040
1.570796326794895
1040
0.0
1040
0.0
1040
-0.25
1040
0.0
1070
     2
1040
0.25
1040
-0.25
1040
2.3561944901923431
1040
0.0
1040
0.25
1040
-0.2499999995804921
1040
0.0
1070
     4
1040
0.0625
1040
-0.228553391
1040
0.0625
1040
-0.353553391
1040
0.0409960307288529
1071
        1
1040
12.48899031156321
1040
-1.9914593081970431
1040
0.0
1002
}
  0
INSERT
  5
1BE5
  8
0
  2
*U14
 10
0.0
 20
0.0
 30
0.0
  0
CIRCLE
  5
1BE6
  8
0
 10
14.801989856527721
 20
-7.4549865030090592
 30
0.0
 40
0.75
  0
SOLID
  5
1BE7
  8
0
 62
     1
 10
15.72840733187377
 20
-7.5582050286568032
 30
0.0
 11
15.72840733187377
 21
-7.4982050286568027
 31
0.0
 12
15.54840733187377
 22
-7.5282050286568012
 32
0.0
 13
15.54840733187377
 23
-7.5282050286568012
 33
0.0
  0
LINE
  5
1BE8
  8
0
 62
     1
 10
15.72840733187377
 20
-7.5282050286568012
 30
0.0
 11
17.207343571148261
 21
-7.5282050286568012
 31
0.0
  0
INSERT
  5
1BE9
  8
0
  2
*U15
 10
0.0
 20
0.0
 30
0.0
  0
LINE
  5
1BEA
  8
0
 10
14.67235226151983
 20
-7.4549865030090592
 30
0.0
 11
14.93162745153562
 21
-7.4549865030090592
 31
0.0
  0
LINE
  5
1BEC
  8
0
 10
14.801989856527721
 20
-7.5846240980169499
 30
0.0
 11
14.801989856527721
 21
-7.3253489080011658
 31
0.0
  0
LINE
  5
1BFB
  8
0
 62
     1
 10
14.71278287784552
 20
-3.0571183191324569
 30
0.0
 11
12.621203784821651
 21
-3.0571183191324569
 31
0.0
  0
LINE
  5
1BFC
  8
0
 62
     1
 10
14.739489856527721
 20
-7.4549865030090592
 30
0.0
 11
12.621203784821651
 21
-7.4549865030090592
 31
0.0
  0
LINE
  5
1BFD
  8
0
 62
     1
 10
12.80120378482165
 20
-3.2371183191324571
 30
0.0
 11
12.80120378482165
 21
-4.2802123988949301
 31
0.0
  0
LINE
  5
1BFE
  8
0
 62
     1
 10
12.80120378482165
 20
-7.2749865030090568
 30
0.0
 11
12.80120378482165
 21
-6.5018288048155437
 31
0.0
  0
SOLID
  5
1BFF
  8
0
 62
     1
 10
12.771203784821649
 20
-3.2371183191324571
 30
0.0
 11
12.83120378482165
 21
-3.2371183191324571
 31
0.0
 12
12.80120378482165
 22
-3.0571183191324569
 32
0.0
 13
12.80120378482165
 23
-3.0571183191324569
 33
0.0
  0
SOLID
  5
1C00
  8
0
 62
     1
 10
12.771203784821649
 20
-7.2749865030090568
 30
0.0
 11
12.83120378482165
 21
-7.2749865030090568
 31
0.0
 12
12.80120378482165
 22
-7.4549865030090592
 32
0.0
 13
12.80120378482165
 23
-7.4549865030090592
 33
0.0
  0
INSERT
  5
1C01
  8
0
  2
*U16
 10
0.0
 20
0.0
 30
0.0
  0
INSERT
  5
1C04
  8
0
  2
*U17
 10
0.0
 20
0.0
 30
0.0
  0
INSERT
  5
1C07
  8
0
  2
*U18
 10
0.0
 20
0.0
 30
0.0
  0
INSERT
  5
1C08
  8
0
  2
*U19
 10
0.0
 20
0.0
 30
0.0
  0
SOLID
  5
1C09
  8
0
 62
     1
 10
7.2715092204807288
 20
-1.067580227343772
 30
0.0
 11
7.2254301913576731
 21
-1.0291520726251771
 31
0.0
 12
7.1331852417634121
 22
-1.186603237353649
 32
0.0
 13
7.1331852417634121
 23
-1.186603237353649
 33
0.0
  0
LINE
  5
1C0A
  8
0
 62
     1
 10
7.2484697059192014
 20
-1.0483661499844741
 30
0.0
 11
7.4936901349998939
 21
-0.7543234259472982
 31
0.0
  0
LINE
  5
1C0B
  8
0
 62
     1
 10
7.4936901349998939
 20
-0.7543234259472982
 30
0.0
 11
7.6070965817212199
 21
-0.7543234259472982
 31
0.0
  0
INSERT
  5
1C0C
  8
0
  2
*U20
 10
0.0
 20
0.0
 30
0.0
  0
LINE
  5
1C0D
  8
0
 10
6.8191852417634147
 20
-2.857036711421995
 30
0.0
 11
6.819185241763412
 21
-1.0756544837894091
 31
0.0
  0
INSERT
  5
1C0E
  8
0
  2
*U21
 10
0.0
 20
0.0
 30
0.0
  0
LINE
  5
1C0F
  8
0
 10
11.806282877845531
 20
-4.9763152263059212
 30
0.0
 11
11.806282877845531
 21
-6.2126125934679139
 31
0.0
  0
LINE
  5
1C10
  8
0
 10
11.774282877845531
 20
-4.9833896308713568
 30
0.0
 11
11.774282877845531
 21
-6.2055381889024792
 31
0.0
  0
SOLID
  5
1C13
  8
0
 62
     1
 10
11.6312397535714
 20
-6.3188460200435612
 30
0.0
 11
11.67572030011846
 21
-6.3591136370437606
 31
0.0
 12
11.774282877845531
 22
-6.2055381889024792
 32
0.0
 13
11.774282877845531
 23
-6.2055381889024792
 33
0.0
  0
LINE
  5
1C14
  8
0
 62
     1
 10
11.65348002684493
 20
-6.3389798285436623
 30
0.0
 11
11.07433841805306
 21
-6.9787131230934563
 31
0.0
  0
LINE
  5
1C15
  8
0
 62
     1
 10
11.07433841805306
 20
-6.9787131230934563
 30
0.0
 11
10.846013400679951
 21
-6.9787131230934563
 31
0.0
  0
INSERT
  5
1C16
  8
0
  2
*U22
 10
0.0
 20
0.0
 30
0.0
  0
LINE
  5
1C18
  8
GH
 10
4.8492199593030501
 20
-1.067886520108678
 30
0.0
 11
4.9970249761192651
 21
-1.067886520108678
 31
0.0
  0
LINE
  5
1C1A
  8
GH
 10
4.8492199593030501
 20
-1.0358865201086771
 30
0.0
 11
4.9970249761192651
 21
-1.0358865201086771
 31
0.0
  0
LINE
  5
1C1B
  8
0
 10
4.8450825053052604
 20
-1.7044054271332441
 30
0.0
 11
4.7864251691398891
 21
-1.095908842506909
 31
0.0
  0
LINE
  5
1C1C
  8
0
 10
4.8450825053052604
 20
-1.7044054271332441
 30
0.0
 11
4.8950251623503211
 21
-1.7044054271332441
 31
0.0
  0
LINE
  5
1C1D
  8
0
 10
4.7864251691398891
 20
-1.095908842506909
 30
0.0
 11
4.8292903086893988
 21
-1.095908842506909
 31
0.0
  0
ARC
  5
1C1E
  8
0
 10
4.8306849604548772
 20
-1.700271110907847
 30
0.0
 40
0.024
 50
270.00000000000011
 51
350.0805689596981
  0
ARC
  5
1C1F
  8
GH
 10
4.8492199593030501
 20
-1.091886520108678
 30
0.0
 40
0.024
 50
90.0
 51
153.8630239399082
  0
ARC
  5
1C20
  8
0
 10
4.8306849604548772
 20
-1.700271110907847
 30
0.0
 40
0.056
 50
270.00000000000011
 51
355.76616816762498
  0
ARC
  5
1C21
  8
GH
 10
4.8492199593030501
 20
-1.091886520108678
 30
0.0
 40
0.056
 50
90.0
 51
117.519399588121
  0
LINE
  5
1C32
  8
GH
 10
4.9970249761192651
 20
-1.0358865201086771
 30
0.0
 11
4.9970249761192651
 21
-1.067886520108678
 31
0.0
  0
ARC
  5
1C36
  8
0
 10
4.8492199593030501
 20
-1.091886520108678
 30
0.0
 40
0.024
 50
153.86302393981481
 51
189.64811928027279
  0
ARC
  5
1C37
  8
0
 10
4.8492199593030501
 20
-1.091886520108678
 30
0.0
 40
0.056
 50
117.5193995881254
 51
184.11894148726341
  0
LINE
  5
1C3F
  8
0
 10
7.0534285302493052
 20
-2.1053164359247161
 30
0.0
 11
7.0333859398845524
 21
-2.228316435924715
 31
0.0
  0
LINE
  5
1C40
  8
0
 10
7.073471120614057
 20
-2.1053164359247161
 30
0.0
 11
7.053428530249306
 21
-2.228316435924715
 31
0.0
  0
LINE
  5
1C41
  8
0
 10
7.0935137109788089
 20
-2.1053164359247161
 30
0.0
 11
7.073471120614057
 21
-2.228316435924715
 31
0.0
  0
LINE
  5
1C42
  8
0
 10
7.1135563013435634
 20
-2.1053164359247161
 30
0.0
 11
7.0935137109788098
 21
-2.228316435924715
 31
0.0
  0
LINE
  5
1C43
  8
0
 10
7.1335988917083162
 20
-2.1053164359247161
 30
0.0
 11
7.1135563013435643
 21
-2.228316435924715
 31
0.0
  0
LINE
  5
1C44
  8
0
 10
7.1603222473189847
 20
-2.1053164359247161
 30
0.0
 11
7.1402796569542328
 21
-2.228316435924715
 31
0.0
  0
LINE
  5
1C45
  8
0
 10
7.1803648376837392
 20
-2.1053164359247161
 30
0.0
 11
7.1603222473189874
 21
-2.228316435924715
 31
0.0
  0
LINE
  5
1C46
  8
0
 10
7.2004074280484911
 20
-2.1053164359247161
 30
0.0
 11
7.1803648376837401
 21
-2.228316435924715
 31
0.0
  0
SOLID
  5
1C47
  8
0
 62
     1
 10
7.1713361822048141
 20
-2.4104666301006512
 30
0.0
 11
7.2298165730248032
 21
-2.397048586668709
 31
0.0
 12
7.1603222473189874
 22
-2.228316435924715
 32
0.0
 13
7.1603222473189874
 23
-2.228316435924715
 33
0.0
  0
LINE
  5
1C48
  8
0
 62
     1
 10
7.2005763776148086
 20
-2.4037576083846801
 30
0.0
 11
7.6279821981182439
 21
-4.2665373458745446
 31
0.0
  0
LINE
  5
1C49
  8
0
 62
     1
 10
7.6279821981182439
 20
-4.2665373458745446
 30
0.0
 11
7.7415567786428436
 21
-4.2665373458745446
 31
0.0
  0
INSERT
  5
1C4A
  8
0
  2
*U23
 10
0.0
 20
0.0
 30
0.0
  0
SOLID
  5
1C4B
  8
0
 62
     1
 10
5.5478911200356649
 20
-1.940032561047994
 30
0.0
 11
5.4913512947560923
 21
-1.919951521300129
 31
0.0
 12
5.4593780881522891
 22
-2.0996115170127831
 32
0.0
 13
5.4593780881522891
 23
-2.0996115170127831
 33
0.0
  0
LINE
  5
1C4C
  8
0
 62
     1
 10
5.519621207395879
 20
-1.9299920411740621
 30
0.0
 11
6.1874009361819597
 21
-0.0498030835866885
 31
0.0
  0
LINE
  5
1C4D
  8
0
 62
     1
 10
6.1874009361819597
 20
-0.0498030835866885
 30
0.0
 11
6.4906665161119852
 21
-0.0498030835866885
 31
0.0
  0
INSERT
  5
1C4E
  8
0
  2
*U24
 10
0.0
 20
0.0
 30
0.0
  0
POLYLINE
  5
1CF2
  8
0
 66
     1
 10
0.0
 20
0.0
 30
0.0
  0
VERTEX
  5
2770
  8
0
 10
4.852378340158813
 20
-3.106315229199573
 30
0.0
  0
VERTEX
  5
2771
  8
0
 10
4.8609431125950042
 20
-3.033306994302551
 30
0.0
  0
VERTEX
  5
2772
  8
0
 10
4.8735513873823031
 20
-2.919449989310769
 30
0.0
  0
VERTEX
  5
2773
  8
0
 10
4.885972949952488
 20
-2.795425375932644
 30
0.0
  0
VERTEX
  5
2774
  8
0
 10
4.8982389182412254
 20
-2.6555896654860471
 30
0.0
  0
VERTEX
  5
2775
  8
0
 10
4.910380410184187
 20
-2.4942993692888442
 30
0.0
  0
VERTEX
  5
2776
  8
0
 10
4.922428543717043
 20
-2.305910998658911
 30
0.0
  0
VERTEX
  5
2777
  8
0
 10
4.9224512612561719
 20
-2.305491878623529
 30
0.0
  0
SEQEND
  5
2778
  8
0
  0
ARC
  5
1D04
  8
0
 10
4.6780276276206232
 20
-1.4200483979809999
 30
0.0
 40
0.3576965894540467
 50
307.34784941954882
 51
64.983461392929357
  0
INSERT
  5
1D0C
  8
0
  6
CONTINUOUS
  2
*X25
 10
0.0
 20
0.0
 30
0.0
1001
ACAD
1000
HATCH
1002
{
1070
    19
1000
ANSI31
1040
0.25
1040
1.570796326794895
1000
R14_HATCH_DATA
1000
1D0C
1011
1.0
1021
0.0
1031
0.0
1021
0.0
1031
0.0
1011
0.0
1021
0.0
1031
0.0
1021
1.0
1031
0.0
1011
0.0
1021
0.0
1031
0.0
1021
0.0
1031
1.0
1040
0.0
1010
0.0
1020
0.0
1030
1.0
1000
ANSI31
1070
     0
1070
     0
1071
        1
1071
        7
1070
     1
1070
     1
1071
        7
1040
4.8735513873823102
1040
-1.4771828825387101
1040
0.0
1040
4.8859729499524871
1040
-1.6012074959168201
1040
0.0
1040
4.8950251623503203
1040
-1.7044054271332461
1040
0.5636757812517783
1040
4.8292903086893979
1040
-1.095908842506907
1040
0.0
1040
4.8350678867029311
1040
-1.144468363740982
1040
0.0
1040
4.8481170076549001
1040
-1.253992992258903
1040
0.0
1040
4.860943112595006
1040
-1.363325877546895
1040
0.0
1071
        0
1070
     0
1070
     1
1040
1.570796326794895
1040
0.25
1070
     0
1070
     1
1040
2.3561944901923431
1040
0.0
1040
0.0
1040
-0.0220970869120796
1040
-0.0220970869120796
1070
     0
1040
0.001708918493021
1071
        1
1040
4.9484775766707241
1040
-1.400761184121043
1040
0.0
1002
}
  0
SOLID
  5
1D0D
  8
0
 62
     1
 10
5.1354003074431054
 20
-1.16574730300086
 30
0.0
 11
5.0840974187273771
 21
-1.134634385917727
 31
0.0
 12
5.0164101118358451
 22
-1.304099510606471
 32
0.0
 13
5.0164101118358451
 23
-1.304099510606471
 33
0.0
  0
LINE
  5
1D0E
  8
0
 62
     1
 10
5.109748863085243
 20
-1.1501908444592941
 30
0.0
 11
6.6646469907638757
 21
1.413720645917627
 31
0.0
  0
LINE
  5
1D0F
  8
0
 62
     1
 10
6.6646469907638757
 20
1.413720645917627
 30
0.0
 11
6.7360878630079091
 21
1.413720645917627
 31
0.0
  0
INSERT
  5
1D10
  8
0
  2
*U26
 10
0.0
 20
0.0
 30
0.0
  0
POLYLINE
  5
1D12
  8
0
 66
     1
 10
0.0
 20
0.0
 30
0.0
  0
VERTEX
  5
2779
  8
0
 10
5.4430408954368641
 20
-1.815604567905686
 30
0.0
  0
VERTEX
  5
277A
  8
0
 10
5.4523130538248594
 20
-1.768930581565975
 30
0.0
  0
VERTEX
  5
277B
  8
0
 10
5.4844327714117327
 20
-1.6172997711776631
 30
0.0
  0
VERTEX
  5
277C
  8
0
 10
5.518170663081321
 20
-1.4631071553596511
 30
0.0
  0
VERTEX
  5
277D
  8
0
 10
5.5524375734665901
 20
-1.307366308534734
 30
0.0
  0
VERTEX
  5
277E
  8
0
 10
5.5861443472005057
 20
-1.1510908051257089
 30
0.0
  0
VERTEX
  5
277F
  8
0
 10
5.6182018289160389
 20
-0.9952942195553756
 30
0.0
  0
VERTEX
  5
2780
  8
0
 10
5.6477283213610718
 20
-0.8408160149142958
 30
0.0
  0
VERTEX
  5
2781
  8
0
 10
5.6746719597431561
 20
-0.6877992089641059
 30
0.0
  0
VERTEX
  5
2782
  8
0
 10
5.6991883373847614
 20
-0.5362127081342081
 30
0.0
  0
VERTEX
  5
2783
  8
0
 10
5.7214330476083539
 20
-0.3860254188540053
 30
0.0
  0
VERTEX
  5
2784
  8
0
 10
5.741561683736407
 20
-0.2372062475528994
 30
0.0
  0
VERTEX
  5
2785
  8
0
 10
5.7597298390913902
 20
-0.0897241006602928
 30
0.0
  0
VERTEX
  5
2786
  8
0
 10
5.7760931069957682
 20
0.0564521153944121
 30
0.0
  0
VERTEX
  5
2787
  8
0
 10
5.7908070807720122
 20
0.2013534941818129
 30
0.0
  0
VERTEX
  5
2788
  8
0
 10
5.8040169809535191
 20
0.3450888632535514
 30
0.0
  0
VERTEX
  5
2789
  8
0
 10
5.8158265369174114
 20
0.4880779860854461
 30
0.0
  0
VERTEX
  5
278A
  8
0
 10
5.8263291052517321
 20
0.6308183601343596
 30
0.0
  0
VERTEX
  5
278B
  8
0
 10
5.8356180425445281
 20
0.7738074828571541
 30
0.0
  0
VERTEX
  5
278C
  8
0
 10
5.843786705383847
 20
0.9175428517106921
 30
0.0
  0
VERTEX
  5
278D
  8
0
 10
5.8509284503577401
 20
1.0625219641518351
 30
0.0
  0
VERTEX
  5
278E
  8
0
 10
5.8571366340542479
 20
1.20924231763745
 30
0.0
  0
VERTEX
  5
278F
  8
0
 10
5.8625046130614233
 20
1.358201409624394
 30
0.0
  0
VERTEX
  5
2790
  8
0
 10
5.8670894386701331
 20
1.5096376242812031
 30
0.0
  0
VERTEX
  5
2791
  8
0
 10
5.8708029409825553
 20
1.662752892623083
 30
0.0
  0
VERTEX
  5
2792
  8
0
 10
5.8735206448036834
 20
1.816490032376916
 30
0.0
  0
VERTEX
  5
2793
  8
0
 10
5.8751180749385181
 20
1.9697918612695811
 30
0.0
  0
VERTEX
  5
2794
  8
0
 10
5.8754707561920521
 20
2.121601197027958
 30
0.0
  0
VERTEX
  5
2795
  8
0
 10
5.8744542133692894
 20
2.270860857378922
 30
0.0
  0
VERTEX
  5
2796
  8
0
 10
5.8719439712752273
 20
2.4165136600493562
 30
0.0
  0
VERTEX
  5
2797
  8
0
 10
5.8678155547148574
 20
2.5575024227661389
 30
0.0
  0
VERTEX
  5
2798
  8
0
 10
5.862006726026749
 20
2.692832150397344
 30
0.0
  0
VERTEX
  5
2799
  8
0
 10
5.8547041976837511
 20
2.8217565963758271
 30
0.0
  0
VERTEX
  5
279A
  8
0
 10
5.8461569196922722
 20
2.9435917012756381
 30
0.0
  0
VERTEX
  5
279B
  8
0
 10
5.8366138420587292
 20
3.0576534056708282
 30
0.0
  0
VERTEX
  5
279C
  8
0
 10
5.8263239147895352
 20
3.1632576501354461
 30
0.0
  0
VERTEX
  5
279D
  8
0
 10
5.8155360878911031
 20
3.2597203752435471
 30
0.0
  0
VERTEX
  5
279E
  8
0
 10
5.8044993113698489
 20
3.3463575215691761
 30
0.0
  0
VERTEX
  5
279F
  8
0
 10
5.7934625352321873
 20
3.4224850296863871
 30
0.0
  0
VERTEX
  5
27A0
  8
0
 10
5.7826124719829242
 20
3.4877556875658859
 30
0.0
  0
VERTEX
  5
27A1
  8
0
 10
5.7718868841204589
 20
3.5431696727650182
 30
0.0
  0
VERTEX
  5
27A2
  8
0
 10
5.7611612966415873
 20
3.5900640102377839
 30
0.0
  0
VERTEX
  5
27A3
  8
0
 10
5.750311234543096
 20
3.6297757249381828
 30
0.0
  0
VERTEX
  5
27A4
  8
0
 10
5.7392122228217843
 20
3.663641841820215
 30
0.0
  0
VERTEX
  5
27A5
  8
0
 10
5.7277397864744408
 20
3.6929993858378811
 30
0.0
  0
VERTEX
  5
27A6
  8
0
 10
5.7157694504978611
 20
3.719185381945183
 30
0.0
  0
VERTEX
  5
27A7
  8
0
 10
5.7031767398888391
 20
3.7435368550961212
 30
0.0
  0
VERTEX
  5
27A8
  8
0
 10
5.6898579254460646
 20
3.7671524459670631
 30
0.0
  0
VERTEX
  5
27A9
  8
0
 10
5.6757922611758467
 20
3.7901772581238471
 30
0.0
  0
VERTEX
  5
27AA
  8
0
 10
5.6609797468863867
 20
3.8125180108546819
 30
0.0
  0
VERTEX
  5
27AB
  8
0
 10
5.6454203823858879
 20
3.8340814234477758
 30
0.0
  0
VERTEX
  5
27AC
  8
0
 10
5.6291141674825589
 20
3.8547742151913349
 30
0.0
  0
VERTEX
  5
27AD
  8
0
 10
5.612061101984601
 20
3.874503105373563
 30
0.0
  0
VERTEX
  5
27AE
  8
0
 10
5.59426118570022
 20
3.8931748132826729
 30
0.0
  0
VERTEX
  5
27AF
  8
0
 10
5.5757144184376211
 20
3.9106960582068702
 30
0.0
  0
VERTEX
  5
27B0
  8
0
 10
5.5564259865673638
 20
3.926994406148641
 30
0.0
  0
VERTEX
  5
27B1
  8
0
 10
5.5364218227094337
 20
3.9420808099676061
 30
0.0
  0
VERTEX
  5
27B2
  8
0
 10
5.5157330460461731
 20
3.9559870692376649
 30
0.0
  0
VERTEX
  5
27B3
  8
0
 10
5.4943907757599231
 20
3.9687449835327211
 30
0.0
  0
VERTEX
  5
27B4
  8
0
 10
5.4724261310330231
 20
3.980386352426672
 30
0.0
  0
VERTEX
  5
27B5
  8
0
 10
5.4498702310478162
 20
3.990942975493418
 30
0.0
  0
VERTEX
  5
27B6
  8
0
 10
5.4267541949866427
 20
4.000446652306862
 30
0.0
  0
VERTEX
  5
27B7
  8
0
 10
5.4031091420318447
 20
4.0089291824408999
 30
0.0
  0
VERTEX
  5
27B8
  8
0
 10
5.3789817506053108
 20
4.016401165717137
 30
0.0
  0
VERTEX
  5
27B9
  8
0
 10
5.3544809360871088
 20
4.0227884029479686
 30
0.0
  0
VERTEX
  5
27BA
  8
0
 10
5.3297311730968566
 20
4.0279954951934931
 30
0.0
  0
VERTEX
  5
27BB
  8
0
 10
5.3048569362541693
 20
4.0319270435138099
 30
0.0
  0
VERTEX
  5
27BC
  8
0
 10
5.279982700178663
 20
4.0344876489690167
 30
0.0
  0
VERTEX
  5
27BD
  8
0
 10
5.2552329394899537
 20
4.035581912619211
 30
0.0
  0
VERTEX
  5
27BE
  8
0
 10
5.2307321288076594
 20
4.0351144355244921
 30
0.0
  0
VERTEX
  5
27BF
  8
0
 10
5.2066047427513951
 20
4.0329898187449551
 30
0.0
  0
VERTEX
  5
27C0
  8
0
 10
5.1829545101708403
 20
4.0291185516603187
 30
0.0
  0
VERTEX
  5
27C1
  8
0
 10
5.1598021768359299
 20
4.023434676928777
 30
0.0
  0
VERTEX
  5
27C2
  8
0
 10
5.1371477427466683
 20
4.0158781255281459
 30
0.0
  0
VERTEX
  5
27C3
  8
0
 10
5.1149912079030511
 20
4.006388828436239
 30
0.0
  0
VERTEX
  5
27C4
  8
0
 10
5.0933325723050817
 20
3.9949067166308652
 30
0.0
  0
VERTEX
  5
27C5
  8
0
 10
5.0721718359527603
 20
3.9813717210898441
 30
0.0
  0
VERTEX
  5
27C6
  8
0
 10
5.0515089988460833
 20
3.9657237727909842
 30
0.0
  0
VERTEX
  5
27C7
  8
0
 10
5.0313440609850542
 20
3.947902802712103
 30
0.0
  0
VERTEX
  5
27C8
  8
0
 10
5.0116718359351751
 20
3.9278016307153312
 30
0.0
  0
VERTEX
  5
27C9
  8
0
 10
4.9924663915239922
 20
3.9051246322000721
 30
0.0
  0
VERTEX
  5
27CA
  8
0
 10
4.9736966091445431
 20
3.879529071450047
 30
0.0
  0
VERTEX
  5
27CB
  8
0
 10
4.9553313701898762
 20
3.850672212748981
 30
0.0
  0
VERTEX
  5
27CC
  8
0
 10
4.9373395560530309
 20
3.8182113203805961
 30
0.0
  0
VERTEX
  5
27CD
  8
0
 10
4.9196900481270589
 20
3.7818036586286148
 30
0.0
  0
VERTEX
  5
27CE
  8
0
 10
4.9023517278050033
 20
3.7411064917767569
 30
0.0
  0
VERTEX
  5
27CF
  8
0
 10
4.8852934764799043
 20
3.6957770841087481
 30
0.0
  0
VERTEX
  5
27D0
  8
0
 10
4.8684997348802543
 20
3.6455660983782359
 30
0.0
  0
VERTEX
  5
27D1
  8
0
 10
4.8520171810763131
 20
3.590597791218578
 30
0.0
  0
VERTEX
  5
27D2
  8
0
 10
4.835908052473787
 20
3.5310898177330561
 30
0.0
  0
VERTEX
  5
27D3
  8
0
 10
4.820234586478386
 20
3.4672598330249551
 30
0.0
  0
VERTEX
  5
27D4
  8
0
 10
4.8050590204958112
 20
3.399325492197558
 30
0.0
  0
VERTEX
  5
27D5
  8
0
 10
4.7904435919317692
 20
3.327504450354148
 30
0.0
  0
VERTEX
  5
27D6
  8
0
 10
4.7764505381919671
 20
3.2520143625980111
 30
0.0
  0
VERTEX
  5
27D7
  8
0
 10
4.7631420966821123
 20
3.1730728840324272
 30
0.0
  0
VERTEX
  5
27D8
  8
0
 10
4.750575318341447
 20
3.0908924875534649
 30
0.0
  0
VERTEX
  5
27D9
  8
0
 10
4.738786508243388
 20
3.0056649172283301
 30
0.0
  0
VERTEX
  5
27DA
  8
0
 10
4.7278067849948942
 20
2.9175767349170041
 30
0.0
  0
VERTEX
  5
27DB
  8
0
 10
4.7176672672029127
 20
2.8268145024794791
 30
0.0
  0
VERTEX
  5
27DC
  8
0
 10
4.708399073474407
 20
2.7335647817757391
 30
0.0
  0
VERTEX
  5
27DD
  8
0
 10
4.7000333224163251
 20
2.638014134665768
 30
0.0
  0
VERTEX
  5
27DE
  8
0
 10
4.6926011326356267
 20
2.5403491230095581
 30
0.0
  0
VERTEX
  5
27DF
  8
0
 10
4.686133622739268
 20
2.4407563086670909
 30
0.0
  0
VERTEX
  5
27E0
  8
0
 10
4.6806463520307213
 20
2.3394015243603761
 30
0.0
  0
VERTEX
  5
27E1
  8
0
 10
4.6760926425995581
 20
2.2363676862594861
 30
0.0
  0
VERTEX
  5
27E2
  8
0
 10
4.6724102572318671
 20
2.1317169813965191
 30
0.0
  0
VERTEX
  5
27E3
  8
0
 10
4.669536958713735
 20
2.0255115968035682
 30
0.0
  0
VERTEX
  5
27E4
  8
0
 10
4.6674105098312566
 20
1.9178137195127281
 30
0.0
  0
VERTEX
  5
27E5
  8
0
 10
4.665968673370517
 20
1.8086855365560961
 30
0.0
  0
VERTEX
  5
27E6
  8
0
 10
4.6651492121176092
 20
1.698189234965763
 30
0.0
  0
VERTEX
  5
27E7
  8
0
 10
4.6648898888586192
 20
1.5863870017738291
 30
0.0
  0
VERTEX
  5
27E8
  8
0
 10
4.6651440256831158
 20
1.473330659507035
 30
0.0
  0
VERTEX
  5
27E9
  8
0
 10
4.6659271818945793
 20
1.359030572670735
 30
0.0
  0
VERTEX
  5
27EA
  8
0
 10
4.6672704760999579
 20
1.2434867412649251
 30
0.0
  0
VERTEX
  5
27EB
  8
0
 10
4.6692050269062131
 20
1.126699165289605
 30
0.0
  0
VERTEX
  5
27EC
  8
0
 10
4.6717619529203001
 20
1.0086678447447781
 30
0.0
  0
VERTEX
  5
27ED
  8
0
 10
4.6749723727491723
 20
0.8893927796304442
 30
0.0
  0
VERTEX
  5
27EE
  8
0
 10
4.6788674049997843
 20
0.7688739699466005
 30
0.0
  0
VERTEX
  5
27EF
  8
0
 10
4.6834781682790894
 20
0.6471114156932482
 30
0.0
  0
VERTEX
  5
27F0
  8
0
 10
4.6888305947275892
 20
0.5241673041024998
 30
0.0
  0
VERTEX
  5
27F1
  8
0
 10
4.694929870619946
 20
0.4003525713349154
 30
0.0
  0
VERTEX
  5
27F2
  8
0
 10
4.7017759957643612
 20
0.2760403407831678
 30
0.0
  0
VERTEX
  5
27F3
  8
0
 10
4.7093689699690433
 20
0.1516037358399296
 30
0.0
  0
VERTEX
  5
27F4
  8
0
 10
4.7177087930421919
 20
0.0274158798978733
 30
0.0
  0
VERTEX
  5
27F5
  8
0
 10
4.7267954647920174
 20
-0.0961501036503284
 30
0.0
  0
VERTEX
  5
27F6
  8
0
 10
4.7366289850267211
 20
-0.2187210914120031
 30
0.0
  0
VERTEX
  5
27F7
  8
0
 10
4.7472093535545081
 20
-0.3399239599944781
 30
0.0
  0
VERTEX
  5
27F8
  8
0
 10
4.758515824461595
 20
-0.4594607289370671
 30
0.0
  0
VERTEX
  5
27F9
  8
0
 10
4.7704446689462507
 20
-0.5773339895070282
 30
0.0
  0
VERTEX
  5
27FA
  8
0
 10
4.7828714124847611
 20
-0.6936214759036066
 30
0.0
  0
VERTEX
  5
27FB
  8
0
 10
4.7956715805534014
 20
-0.8084009223260469
 30
0.0
  0
VERTEX
  5
27FC
  8
0
 10
4.8087206986284521
 20
-0.9217500629735932
 30
0.0
  0
VERTEX
  5
27FD
  8
0
 10
4.8218942921862027
 20
-1.0337466320454889
 30
0.0
  0
VERTEX
  5
27FE
  8
0
 10
4.8350678867029311
 20
-1.144468363740982
 30
0.0
  0
VERTEX
  5
27FF
  8
0
 10
4.8481170076549152
 20
-1.253992992259316
 30
0.0
  0
VERTEX
  5
2800
  8
0
 10
4.8609431125950042
 20
-1.3633258775468811
 30
0.0
  0
VERTEX
  5
2801
  8
0
 10
4.8735513873823031
 20
-1.477182882538663
 30
0.0
  0
VERTEX
  5
2802
  8
0
 10
4.885972949952488
 20
-1.601207495916787
 30
0.0
  0
VERTEX
  5
2803
  8
0
 10
4.8982389182412254
 20
-1.7410432063633861
 30
0.0
  0
VERTEX
  5
2804
  8
0
 10
4.910380410184187
 20
-1.9023335025605881
 30
0.0
  0
VERTEX
  5
2805
  8
0
 10
4.922428543717043
 20
-2.0907218731905211
 30
0.0
  0
VERTEX
  5
2806
  8
0
 10
4.9224512612561719
 20
-2.0911409932259031
 30
0.0
  0
SEQEND
  5
2807
  8
0
  0
LINE
  5
1DA2
  8
0
 10
5.4430408954368641
 20
-1.815604567905686
 30
0.0
 11
5.3979329184884941
 21
-1.9675192431411841
 31
0.0
  0
LINE
  5
1DA3
  8
0
 10
5.3979329184884923
 20
-2.4291136287082482
 30
0.0
 11
5.3659329184884932
 21
-2.4291136287082482
 31
0.0
  0
LINE
  5
1DA4
  8
0
 10
5.4430408954368641
 20
-2.581028303943746
 30
0.0
 11
5.3979329184884941
 21
-2.4291136287082482
 31
0.0
  0
POLYLINE
  5
1DA5
  8
0
 66
     1
 10
0.0
 20
0.0
 30
0.0
  0
VERTEX
  5
2808
  8
0
 10
5.4430408954368668
 20
-2.5810283039437598
 30
0.0
  0
VERTEX
  5
2809
  8
0
 10
5.4523130538248594
 20
-2.627702290283457
 30
0.0
  0
VERTEX
  5
280A
  8
0
 10
5.4844327714117327
 20
-2.7793331006717681
 30
0.0
  0
VERTEX
  5
280B
  8
0
 10
5.518170663081321
 20
-2.9335257164897799
 30
0.0
  0
VERTEX
  5
280C
  8
0
 10
5.5524375734665901
 20
-3.089266563314697
 30
0.0
  0
VERTEX
  5
280D
  8
0
 10
5.5561147686181709
 20
-3.106315229199573
 30
0.0
  0
SEQEND
  5
280E
  8
0
  0
LINE
  5
1DB0
  8
0
 10
4.8904512612561746
 20
-2.3699282738872962
 30
0.0
 11
4.9154749869113203
 21
-2.414638979896885
 31
0.0
  0
SOLID
  5
1DB1
  8
0
 62
     1
 10
4.9583127502750521
 20
-2.5920225361527942
 30
0.0
 11
5.0135269975275758
 21
-2.568540907156128
 31
0.0
 12
4.9154749869113203
 22
-2.414638979896885
 32
0.0
 13
4.9154749869113203
 23
-2.414638979896885
 33
0.0
  0
LINE
  5
1DB2
  8
0
 62
     1
 10
4.9859198739013131
 20
-2.5802817216544609
 30
0.0
 11
5.9797613517974071
 21
-4.9171813080572653
 31
0.0
  0
LINE
  5
1DB3
  8
0
 62
     1
 10
5.9797613517974071
 20
-4.9171813080572653
 30
0.0
 11
5.8085177064991314
 21
-4.9171813080572653
 31
0.0
  0
INSERT
  5
1DB4
  8
0
  2
*U27
 10
0.0
 20
0.0
 30
0.0
  0
INSERT
  5
1DB5
  8
0
  2
*U28
 10
0.0
 20
0.0
 30
0.0
  0
INSERT
  5
1DB6
  8
0
  2
*U29
 10
0.0
 20
0.0
 30
0.0
  0
INSERT
  5
1DB7
  8
0
  2
*U30
 10
0.0
 20
0.0
 30
0.0
  0
LINE
  5
1DB9
  8
0
 10
40.483474554763838
 20
1.1430662447168121
 30
0.0
 11
40.483474554763831
 21
1.163812862758802
 31
0.0
  0
LINE
  5
1DC2
  8
0
 10
35.901455949580537
 20
1.29774284267158
 30
0.0
 11
35.818505989587777
 21
1.214792882678815
 31
0.0
  0
LINE
  5
1DC3
  8
0
 10
35.901455949580537
 20
1.29774284267158
 30
0.0
 11
35.813628855659722
 21
1.3855699365924099
 31
0.0
  0
LINE
  5
1E98
  8
0
 10
39.984673667946851
 20
1.1963941657102539
 30
0.0
 11
39.984673667946808
 21
1.263967939002113
 31
0.0
  0
LINE
  5
1EF9
  8
0
 10
38.183474554763713
 20
1.5844864136250629
 30
0.0
 11
38.183474554763713
 21
1.5288796599217891
 31
0.0
  0
LINE
  5
1EFA
  8
0
 10
37.346474554763731
 20
1.6630336516402531
 30
0.0
 11
37.346474554763731
 21
1.5999575454784201
 31
0.0
  0
LINE
  5
1EFB
  8
0
 10
36.546474554763719
 20
1.654359654718643
 30
0.0
 11
36.546474554763719
 21
1.591097293748434
 31
0.0
  0
LINE
  5
1EFC
  8
0
 10
36.483474554763717
 20
1.6481028004070639
 30
0.0
 11
36.483474554763717
 21
1.584729358427714
 31
0.0
  0
LINE
  5
1EFD
  8
0
 10
37.283474554763693
 20
1.665864111843665
 30
0.0
 11
37.283474554763693
 21
1.602811043297329
 31
0.0
  0
LINE
  5
1EFE
  8
0
 10
38.120474554763732
 20
1.5923568727980251
 30
0.0
 11
38.120474554763732
 21
1.5288796599217891
 31
0.0
  0
LINE
  5
1F31
  8
0
 10
36.483474554763717
 20
1.584729358427714
 30
0.0
 11
36.546474554763734
 21
1.591097293748434
 31
0.0
  0
LINE
  5
1F32
  8
0
 10
36.483474554763717
 20
1.6481028004070639
 30
0.0
 11
36.546474554763719
 21
1.654359654718643
 31
0.0
  0
LINE
  5
1F34
  8
0
 10
36.546474554763741
 20
1.2077838817855999
 30
0.0
 11
36.546474554763741
 21
1.1475316369555051
 31
0.0
  0
LINE
  5
1F35
  8
0
 10
36.483474554763717
 20
1.2077838817855999
 30
0.0
 11
36.483474554763738
 21
1.144725299999457
 31
0.0
  0
LINE
  5
1F37
  8
0
 10
37.283474554763693
 20
1.602811043297329
 30
0.0
 11
37.346474554763731
 21
1.5999575454784201
 31
0.0
  0
LINE
  5
1F39
  8
0
 10
37.346474554763731
 20
1.271410100141465
 30
0.0
 11
37.346474554763731
 21
1.2121785479015861
 31
0.0
  0
LINE
  5
1F3A
  8
0
 10
37.283474554763728
 20
1.271410100141465
 30
0.0
 11
37.283474554763721
 21
1.2071748430458751
 31
0.0
  0
LINE
  5
1F3E
  8
0
 10
38.120474554763732
 20
1.3192391590287531
 30
0.0
 11
38.120474554763732
 21
1.255820371472665
 31
0.0
  0
LINE
  5
1F3F
  8
0
 10
38.18347455476372
 20
1.3219097068388641
 30
0.0
 11
38.18347455476372
 21
1.2583855550773799
 31
0.0
  0
LINE
  5
1F44
  8
0
 10
38.120474554763732
 20
1.3192391590287531
 30
0.0
 11
38.183474554763727
 21
1.3219097068388661
 31
0.0
  0
INSERT
  5
1F46
  8
0
  2
*U31
 10
0.0
 20
0.0
 30
0.0
  0
LINE
  5
1F47
  8
0
 10
37.782375995580431
 20
9.1241937847049197
 30
0.0
 11
38.160870761287079
 21
9.6501674173211232
 31
0.0
  0
LINE
  5
1F48
  8
0
 10
37.172054981659812
 20
10.09471334923904
 30
0.0
 11
38.353628007833933
 21
10.09471334923904
 31
0.0
  0
POLYLINE
  5
1F49
  8
0
 66
     1
 10
0.0
 20
0.0
 30
0.0
  0
VERTEX
  5
280F
  8
0
 10
36.976686348838662
 20
10.46316741732112
 30
0.0
  0
VERTEX
  5
2810
  8
0
 10
37.053891011677742
 20
10.4627277847173
 30
0.0
  0
VERTEX
  5
2811
  8
0
 10
37.126877986578407
 20
10.46148818943932
 30
0.0
  0
VERTEX
  5
2812
  8
0
 10
37.195667147427031
 20
10.45956758528742
 30
0.0
  0
VERTEX
  5
2813
  8
0
 10
37.260278368109987
 20
10.45708492606183
 30
0.0
  0
VERTEX
  5
2814
  8
0
 10
37.320731522513633
 20
10.45415916556278
 30
0.0
  0
VERTEX
  5
2815
  8
0
 10
37.377046484524328
 20
10.45090925759051
 30
0.0
  0
VERTEX
  5
2816
  8
0
 10
37.429243128028453
 20
10.447454155945239
 30
0.0
  0
VERTEX
  5
2817
  8
0
 10
37.477341326912352
 20
10.443912814427231
 30
0.0
  0
VERTEX
  5
2818
  8
0
 10
37.521430811578767
 20
10.44037645864506
 30
0.0
  0
VERTEX
  5
2819
  8
0
 10
37.561880738495887
 20
10.436825401440871
 30
0.0
  0
VERTEX
  5
281A
  8
0
 10
37.599130120648233
 20
10.433212227465139
 30
0.0
  0
VERTEX
  5
281B
  8
0
 10
37.63361797102035
 20
10.42948952136836
 30
0.0
  0
VERTEX
  5
281C
  8
0
 10
37.665783302596772
 20
10.42560986780105
 30
0.0
  0
VERTEX
  5
281D
  8
0
 10
37.696065128362051
 20
10.421525851413669
 30
0.0
  0
VERTEX
  5
281E
  8
0
 10
37.724902461300722
 20
10.417190056856739
 30
0.0
  0
VERTEX
  5
281F
  8
0
 10
37.752734314397308
 20
10.41255506878074
 30
0.0
  0
VERTEX
  5
2820
  8
0
 10
37.779919905147722
 20
10.4075839921094
 30
0.0
  0
VERTEX
  5
2821
  8
0
 10
37.806499269093258
 20
10.40228201285934
 30
0.0
  0
VERTEX
  5
2822
  8
0
 10
37.832432646286591
 20
10.39666483732044
 30
0.0
  0
VERTEX
  5
2823
  8
0
 10
37.85768027678035
 20
10.390748171782549
 30
0.0
  0
VERTEX
  5
2824
  8
0
 10
37.882202400627222
 20
10.38454772253553
 30
0.0
  0
VERTEX
  5
2825
  8
0
 10
37.90595925787985
 20
10.37807919586924
 30
0.0
  0
VERTEX
  5
2826
  8
0
 10
37.928911088590887
 20
10.371358298073551
 30
0.0
  0
VERTEX
  5
2827
  8
0
 10
37.951018132812997
 20
10.3644007354383
 30
0.0
  0
VERTEX
  5
2828
  8
0
 10
37.972273747553729
 20
10.35720693749121
 30
0.0
  0
VERTEX
  5
2829
  8
0
 10
37.992803757640132
 20
10.349716226711161
 30
0.0
  0
VERTEX
  5
282A
  8
0
 10
38.012767104854127
 20
10.34185264881493
 30
0.0
  0
VERTEX
  5
282B
  8
0
 10
38.032322730977661
 20
10.333540249519251
 30
0.0
  0
VERTEX
  5
282C
  8
0
 10
38.051629577792653
 20
10.32470307454088
 30
0.0
  0
VERTEX
  5
282D
  8
0
 10
38.070846587081043
 20
10.31526516959655
 30
0.0
  0
VERTEX
  5
282E
  8
0
 10
38.090132700624771
 20
10.305150580403019
 30
0.0
  0
VERTEX
  5
282F
  8
0
 10
38.109646860205757
 20
10.294283352677031
 30
0.0
  0
VERTEX
  5
2830
  8
0
 10
38.129495027011963
 20
10.282614001073711
 30
0.0
  0
VERTEX
  5
2831
  8
0
 10
38.149571239855433
 20
10.27019891600172
 30
0.0
  0
VERTEX
  5
2832
  8
0
 10
38.169716556954242
 20
10.25712095680807
 30
0.0
  0
VERTEX
  5
2833
  8
0
 10
38.189772036526421
 20
10.24346298283981
 30
0.0
  0
VERTEX
  5
2834
  8
0
 10
38.209578736790107
 20
10.229307853443959
 30
0.0
  0
VERTEX
  5
2835
  8
0
 10
38.228977715963303
 20
10.21473842796755
 30
0.0
  0
VERTEX
  5
2836
  8
0
 10
38.247810032264091
 20
10.199837565757621
 30
0.0
  0
VERTEX
  5
2837
  8
0
 10
38.265916743910559
 20
10.1846881261612
 30
0.0
  0
VERTEX
  5
2838
  8
0
 10
38.28316424768655
 20
10.169367214378241
 30
0.0
  0
VERTEX
  5
2839
  8
0
 10
38.299520294639102
 20
10.153928919020361
 30
0.0
  0
VERTEX
  5
283A
  8
0
 10
38.314977974381037
 20
10.138421574552099
 30
0.0
  0
VERTEX
  5
283B
  8
0
 10
38.329530376525192
 20
10.12289351543801
 30
0.0
  0
VERTEX
  5
283C
  8
0
 10
38.34317059068438
 20
10.10739307614263
 30
0.0
  0
VERTEX
  5
283D
  8
0
 10
38.355891706471432
 20
10.091968591130501
 30
0.0
  0
VERTEX
  5
283E
  8
0
 10
38.367686813499184
 20
10.07666839486617
 30
0.0
  0
VERTEX
  5
283F
  8
0
 10
38.378549001380421
 20
10.06154082181418
 30
0.0
  0
VERTEX
  5
2840
  8
0
 10
38.388484028931011
 20
10.04661694410693
 30
0.0
  0
VERTEX
  5
2841
  8
0
 10
38.397548331778651
 20
10.031858784548239
 30
0.0
  0
VERTEX
  5
2842
  8
0
 10
38.405811014754057
 20
10.017211103609791
 30
0.0
  0
VERTEX
  5
2843
  8
0
 10
38.413341182687972
 20
10.002618661763259
 30
0.0
  0
SEQEND
  5
2844
  8
0
  0
POLYLINE
  5
1F80
  8
0
 66
     1
 10
0.0
 20
0.0
 30
0.0
  0
VERTEX
  5
2845
  8
0
 10
38.414159969850722
 20
10.00214968286701
 30
0.0
  0
VERTEX
  5
2846
  8
0
 10
38.426480392754137
 20
9.9733785372326782
 30
0.0
  0
VERTEX
  5
2847
  8
0
 10
38.432227644547829
 20
9.9586203754919822
 30
0.0
  0
VERTEX
  5
2848
  8
0
 10
38.437518800622883
 20
9.9436964947299238
 30
0.0
  0
VERTEX
  5
2849
  8
0
 10
38.442412600133352
 20
9.9285528062621449
 30
0.0
  0
VERTEX
  5
284A
  8
0
 10
38.446926319526639
 20
9.9131398247801368
 30
0.0
  0
VERTEX
  5
284B
  8
0
 10
38.451066869573573
 20
9.8974092158193638
 30
0.0
  0
VERTEX
  5
284C
  8
0
 10
38.454841161044868
 20
9.8813126449152744
 30
0.0
  0
VERTEX
  5
284D
  8
0
 10
38.458256104711282
 20
9.8648017776033274
 30
0.0
  0
VERTEX
  5
284E
  8
0
 10
38.461318611343607
 20
9.8478282794189891
 30
0.0
  0
VERTEX
  5
284F
  8
0
 10
38.464035591712602
 20
9.8303438158977041
 30
0.0
  0
VERTEX
  5
2850
  8
0
 10
38.46641395658903
 20
9.8123000525749369
 30
0.0
  0
VERTEX
  5
2851
  8
0
 10
38.468463960600012
 20
9.7937024774991173
 30
0.0
  0
VERTEX
  5
2852
  8
0
 10
38.470209233798229
 20
9.7747718687705767
 30
0.0
  0
VERTEX
  5
2853
  8
0
 10
38.471676750092648
 20
9.7557828270026263
 30
0.0
  0
VERTEX
  5
2854
  8
0
 10
38.472893483392319
 20
9.7370099528085756
 30
0.0
  0
VERTEX
  5
2855
  8
0
 10
38.473886407606223
 20
9.7187278468017286
 30
0.0
  0
VERTEX
  5
2856
  8
0
 10
38.474682496643403
 20
9.701211109595393
 30
0.0
  0
VERTEX
  5
2857
  8
0
 10
38.475308724412862
 20
9.6847343418028782
 30
0.0
  0
VERTEX
  5
2858
  8
0
 10
38.475792064823608
 20
9.6695721440375006
 30
0.0
  0
VERTEX
  5
2859
  8
0
 10
38.47613672871104
 20
9.6558570333450682
 30
0.0
  0
VERTEX
  5
285A
  8
0
 10
38.476255874615958
 20
9.6431531925014706
 30
0.0
  0
VERTEX
  5
285B
  8
0
 10
38.476039898005602
 20
9.6308827207150873
 30
0.0
  0
VERTEX
  5
285C
  8
0
 10
38.475379194347141
 20
9.6184677171943171
 30
0.0
  0
VERTEX
  5
285D
  8
0
 10
38.474164159107772
 20
9.6053302811475518
 30
0.0
  0
VERTEX
  5
285E
  8
0
 10
38.472285187754721
 20
9.5908925117831831
 30
0.0
  0
VERTEX
  5
285F
  8
0
 10
38.469632675755172
 20
9.5745765083095975
 30
0.0
  0
VERTEX
  5
2860
  8
0
 10
38.466097018576328
 20
9.5558043699351902
 30
0.0
  0
VERTEX
  5
2861
  8
0
 10
38.461599426200792
 20
9.5341683342309462
 30
0.0
  0
VERTEX
  5
2862
  8
0
 10
38.456184366672737
 20
9.5099411922182266
 30
0.0
  0
VERTEX
  5
2863
  8
0
 10
38.449927122551749
 20
9.4835658732809929
 30
0.0
  0
VERTEX
  5
2864
  8
0
 10
38.442902976397399
 20
9.4554853068032028
 30
0.0
  0
VERTEX
  5
2865
  8
0
 10
38.435187210769271
 20
9.4261424221688088
 30
0.0
  0
VERTEX
  5
2866
  8
0
 10
38.426855108226931
 20
9.3959801487617671
 30
0.0
  0
VERTEX
  5
2867
  8
0
 10
38.417981951329971
 20
9.3654414159660462
 30
0.0
  0
VERTEX
  5
2868
  8
0
 10
38.408643022637968
 20
9.3349691531655914
 30
0.0
  0
VERTEX
  5
2869
  8
0
 10
38.398888153688688
 20
9.3048876946965144
 30
0.0
  0
VERTEX
  5
286A
  8
0
 10
38.388665371932653
 20
9.275046994703489
 30
0.0
  0
VERTEX
  5
286B
  8
0
 10
38.377897253798551
 20
9.2451784122833356
 30
0.0
  0
VERTEX
  5
286C
  8
0
 10
38.366506375715119
 20
9.2150133065328834
 30
0.0
  0
VERTEX
  5
286D
  8
0
 10
38.354415314111051
 20
9.1842830365489565
 30
0.0
  0
VERTEX
  5
286E
  8
0
 10
38.34154664541505
 20
9.1527189614283717
 30
0.0
  0
VERTEX
  5
286F
  8
0
 10
38.327822946055861
 20
9.1200524402679548
 30
0.0
  0
VERTEX
  5
2870
  8
0
 10
38.313166792462148
 20
9.0860148321645315
 30
0.0
  0
VERTEX
  5
2871
  8
0
 10
38.297442657838069
 20
9.0503034365691128
 30
0.0
  0
VERTEX
  5
2872
  8
0
 10
38.28028260248967
 20
9.0124793143494717
 30
0.0
  0
VERTEX
  5
2873
  8
0
 10
38.261260583498341
 20
8.9720694667275716
 30
0.0
  0
VERTEX
  5
2874
  8
0
 10
38.239950557945562
 20
8.9286008949253688
 30
0.0
  0
VERTEX
  5
2875
  8
0
 10
38.215926482912757
 20
8.8816006001648287
 30
0.0
  0
VERTEX
  5
2876
  8
0
 10
38.188762315481391
 20
8.8305955836679093
 30
0.0
  0
VERTEX
  5
2877
  8
0
 10
38.158032012732903
 20
8.7751128466565742
 30
0.0
  0
VERTEX
  5
2878
  8
0
 10
38.123309531748731
 20
8.7146793903527868
 30
0.0
  0
VERTEX
  5
2879
  8
0
 10
38.084334512903609
 20
8.6490245543343658
 30
0.0
  0
VERTEX
  5
287A
  8
0
 10
38.041509329745402
 20
8.5786870316025556
 30
0.0
  0
VERTEX
  5
287B
  8
0
 10
37.99540203911527
 20
8.5044078535144578
 30
0.0
  0
VERTEX
  5
287C
  8
0
 10
37.946580697854337
 20
8.4269280514271792
 30
0.0
  0
VERTEX
  5
287D
  8
0
 10
37.895613362803772
 20
8.3469886566978211
 30
0.0
  0
VERTEX
  5
287E
  8
0
 10
37.843068090804721
 20
8.2653307006834886
 30
0.0
  0
VERTEX
  5
287F
  8
0
 10
37.78951293869833
 20
8.1826952147412868
 30
0.0
  0
VERTEX
  5
2880
  8
0
 10
37.735515963325717
 20
8.0998232302283171
 30
0.0
  0
VERTEX
  5
2881
  8
0
 10
37.681516356840312
 20
8.0172928566833832
 30
0.0
  0
VERTEX
  5
2882
  8
0
 10
37.627437852644398
 20
7.9350305163721231
 30
0.0
  0
VERTEX
  5
2883
  8
0
 10
37.573075319452521
 20
7.8527997097418591
 30
0.0
  0
VERTEX
  5
2884
  8
0
 10
37.518223625979232
 20
7.77036393723992
 30
0.0
  0
VERTEX
  5
2885
  8
0
 10
37.46267764093907
 20
7.687486699313637
 30
0.0
  0
VERTEX
  5
2886
  8
0
 10
37.40623223304658
 20
7.603931496410345
 30
0.0
  0
VERTEX
  5
2887
  8
0
 10
37.348682271016308
 20
7.51946182897737
 30
0.0
  0
VERTEX
  5
2888
  8
0
 10
37.289822623562777
 20
7.4338411974620433
 30
0.0
  0
VERTEX
  5
2889
  8
0
 10
37.229569134362031
 20
7.3469881408188389
 30
0.0
  0
VERTEX
  5
288A
  8
0
 10
37.168321546935942
 20
7.2594413520308292
 30
0.0
  0
VERTEX
  5
288B
  8
0
 10
37.106600579767871
 20
7.1718945625882142
 30
0.0
  0
VERTEX
  5
288C
  8
0
 10
37.044926951341168
 20
7.0850415039812082
 30
0.0
  0
VERTEX
  5
288D
  8
0
 10
36.983821380139233
 20
6.9995759077000201
 30
0.0
  0
VERTEX
  5
288E
  8
0
 10
36.923804584645367
 20
6.9161915052348579
 30
0.0
  0
VERTEX
  5
288F
  8
0
 10
36.865397283342972
 20
6.8355820280759358
 30
0.0
  0
VERTEX
  5
2890
  8
0
 10
36.809120194715398
 20
6.758441207713461
 30
0.0
  0
VERTEX
  5
2891
  8
0
 10
36.755412510660292
 20
6.6853497814929908
 30
0.0
  0
VERTEX
  5
2892
  8
0
 10
36.704387316732479
 20
6.6164365101814768
 30
0.0
  0
VERTEX
  5
2893
  8
0
 10
36.656076171901091
 20
6.551717160401215
 30
0.0
  0
VERTEX
  5
2894
  8
0
 10
36.610510635135263
 20
6.4912074987745054
 30
0.0
  0
VERTEX
  5
2895
  8
0
 10
36.5677222654041
 20
6.434923291923643
 30
0.0
  0
VERTEX
  5
2896
  8
0
 10
36.527742621676751
 20
6.3828803064709287
 30
0.0
  0
VERTEX
  5
2897
  8
0
 10
36.490603262922299
 20
6.3350943090386611
 30
0.0
  0
VERTEX
  5
2898
  8
0
 10
36.456335748109908
 20
6.2915810662491332
 30
0.0
  0
VERTEX
  5
2899
  8
0
 10
36.424900629023632
 20
6.252264372743058
 30
0.0
  0
VERTEX
  5
289A
  8
0
 10
36.395974428707291
 20
6.2167001352347961
 30
0.0
  0
VERTEX
  5
289B
  8
0
 10
36.369162663019672
 20
6.184352288457112
 30
0.0
  0
VERTEX
  5
289C
  8
0
 10
36.344070847819552
 20
6.1546847671427791
 30
0.0
  0
VERTEX
  5
289D
  8
0
 10
36.320304498965697
 20
6.1271615060245637
 30
0.0
  0
VERTEX
  5
289E
  8
0
 10
36.297469132316891
 20
6.1012464398352391
 30
0.0
  0
VERTEX
  5
289F
  8
0
 10
36.275170263731901
 20
6.0764035033075716
 30
0.0
  0
VERTEX
  5
28A0
  8
0
 10
36.25301340906951
 20
6.0520966311743347
 30
0.0
  0
VERTEX
  5
28A1
  8
0
 10
36.230621178574147
 20
6.027883044053258
 30
0.0
  0
VERTEX
  5
28A2
  8
0
 10
36.207684560032952
 20
6.0036931061019247
 30
0.0
  0
VERTEX
  5
28A3
  8
0
 10
36.183911635618692
 20
5.979550467362885
 30
0.0
  0
VERTEX
  5
28A4
  8
0
 10
36.159010487504162
 20
5.9554787778786862
 30
0.0
  0
VERTEX
  5
28A5
  8
0
 10
36.132689197862149
 20
5.9315016876918731
 30
0.0
  0
VERTEX
  5
28A6
  8
0
 10
36.104655848865441
 20
5.9076428468449924
 30
0.0
  0
VERTEX
  5
28A7
  8
0
 10
36.074618522686812
 20
5.883925905380595
 30
0.0
  0
VERTEX
  5
28A8
  8
0
 10
36.042285301499071
 20
5.8603745133412231
 30
0.0
  0
VERTEX
  5
28A9
  8
0
 10
36.006994636960208
 20
5.8370756142379614
 30
0.0
  0
VERTEX
  5
28AA
  8
0
 10
35.966606458669148
 20
5.814369325456008
 30
0.0
  0
VERTEX
  5
28AB
  8
0
 10
35.918611065710053
 20
5.7926590578491073
 30
0.0
  0
VERTEX
  5
28AC
  8
0
 10
35.860498757167029
 20
5.7723482222709901
 30
0.0
  0
VERTEX
  5
28AD
  8
0
 10
35.789759832124247
 20
5.7538402295753972
 30
0.0
  0
VERTEX
  5
28AE
  8
0
 10
35.70388458966584
 20
5.7375384906160631
 30
0.0
  0
VERTEX
  5
28AF
  8
0
 10
35.600363328875929
 20
5.7238464162467251
 30
0.0
  0
VERTEX
  5
28B0
  8
0
 10
35.47668634883869
 20
5.7131674173211211
 30
0.0
  0
SEQEND
  5
28B1
  8
0
  0
LINE
  5
1FF2
  8
0
 10
38.206206057128647
 20
9.7131674173211238
 30
0.0
 11
38.413889218625002
 21
10.00177343458402
 31
0.0
  0
LINE
  5
1FF3
  8
0
 10
7.1709967020969128
 20
9.1241937847049197
 30
0.0
 11
6.7925019363902592
 21
9.6501674173211232
 31
0.0
  0
LINE
  5
1FF4
  8
0
 10
6.7471666405486914
 20
9.7131674173211238
 30
0.0
 11
6.5394834790523362
 21
10.00177343458402
 31
0.0
  0
LINE
  5
1FF5
  8
0
 10
7.781317716017516
 20
10.09471334923904
 30
0.0
 11
6.599744689843412
 21
10.09471334923904
 31
0.0
  0
INSERT
  5
1FF6
  8
0
  2
*U32
 10
0.0
 20
0.0
 30
0.0
  0
INSERT
  5
1FF7
  8
0
  2
*U33
 10
0.0
 20
0.0
 30
0.0
  0
LINE
  5
1FF8
  8
0
 62
     1
 10
22.930387967436602
 20
0.4802361242141524
 30
0.0
 11
23.340679525336899
 21
0.4802361242141524
 31
0.0
  0
LINE
  5
1FF9
  8
0
 62
     1
 10
22.006861201577649
 20
1.0530969340458349
 30
0.0
 11
22.930387967436602
 21
0.4802361242141524
 31
0.0
  0
SOLID
  5
1FFA
  8
0
 62
     1
 10
21.991047544072639
 20
1.0276032439183911
 30
0.0
 11
22.02267485908267
 21
1.0785906241732801
 31
0.0
 12
21.853899060812989
 22
1.147978879075914
 32
0.0
 13
21.853899060812989
 23
1.147978879075914
 33
0.0
  0
LINE
  5
1FFD
  8
0
 62
     1
 10
16.101271605459921
 20
-0.034444121782191
 30
0.0
 11
16.463282877845529
 21
-0.3116032373536512
 31
0.0
  0
CIRCLE
  5
1FFE
  8
0
 62
     1
 10
16.418282877845531
 20
0.004620029924557
 30
0.0
 40
0.045
  0
SOLID
  5
1FFF
  8
0
 62
     1
 10
21.104199434654799
 20
-0.0696197956295473
 30
0.0
 11
21.067519101758251
 21
-0.1171019309922102
 31
0.0
 12
21.228305674294521
 22
-0.2034018620005296
 32
0.0
 13
21.228305674294521
 23
-0.2034018620005296
 33
0.0
  0
LINE
  5
2000
  8
0
 62
     1
 10
21.08585926820653
 20
-0.0933608633108788
 30
0.0
 11
20.230187149599669
 21
0.5676527562551073
 31
0.0
  0
LINE
  5
2001
  8
0
 62
     1
 10
20.230187149599669
 20
0.5676527562551073
 30
0.0
 11
20.110464021641761
 21
0.5676527562551073
 31
0.0
  0
INSERT
  5
2002
  8
0
  2
*U34
 10
0.0
 20
0.0
 30
0.0
  0
INSERT
  5
2003
  8
0
  2
*U35
 10
0.0
 20
0.0
 30
0.0
  0
INSERT
  5
2004
  8
0
  2
*U36
 10
0.0
 20
0.0
 30
0.0
  0
LINE
  5
2005
  8
0
 10
34.07136751551036
 20
3.8408188051303238
 30
0.0
 11
37.51509006697016
 21
3.05142622059723
 31
0.0
  0
LINE
  5
2006
  8
0
 10
41.046537383460489
 20
2.241924792230114
 30
0.0
 11
41.046537383460489
 21
3.8408188051303238
 31
0.0
  0
LINE
  5
2008
  8
0
 10
34.07136751551036
 20
2.241924792230114
 30
0.0
 11
34.07136751551036
 21
3.8408188051303238
 31
0.0
  0
LINE
  5
2009
  8
0
 10
34.07136751551036
 20
2.241924792230114
 30
0.0
 11
37.51509006697016
 21
3.0313173767632091
 31
0.0
  0
LINE
  5
200A
  8
0
 10
36.728130886195849
 20
3.2318181460065949
 30
0.0
 11
38.389774012775
 21
3.2318181460065949
 31
0.0
  0
LINE
  5
200C
  8
0
 10
36.728130886195849
 20
2.8509254513538429
 30
0.0
 11
38.389774012775
 21
2.8509254513538429
 31
0.0
  0
CIRCLE
  5
2029
  8
0
 10
37.558952449485417
 20
3.04137179868022
 30
0.0
 40
0.03
  0
CIRCLE
  5
202A
  8
0
 10
37.558952449485417
 20
3.04137179868022
 30
0.0
 40
0.045
  0
LINE
  5
202B
  8
0
 10
37.602814832000668
 20
3.0313173767632091
 30
0.0
 11
41.046537383460489
 21
2.241924792230114
 31
0.0
  0
LINE
  5
202C
  8
0
 10
37.602814832000668
 20
3.05142622059723
 30
0.0
 11
41.046537383460489
 21
3.8408188051303238
 31
0.0
  0
INSERT
  5
202D
  8
0
  2
*U37
 10
0.0
 20
0.0
 30
0.0
  0
LINE
  5
202E
  8
0
 62
     1
 10
34.07136751551036
 20
3.9033188051303238
 30
0.0
 11
34.07136751551036
 21
4.583840415607205
 31
0.0
  0
LINE
  5
202F
  8
0
 62
     1
 10
41.046537383460489
 20
3.9033188051303238
 30
0.0
 11
41.046537383460489
 21
4.583840415607205
 31
0.0
  0
LINE
  5
2030
  8
0
 62
     1
 10
34.251367515510353
 20
4.4038404156072062
 30
0.0
 11
37.168952449485417
 21
4.4038404156072062
 31
0.0
  0
LINE
  5
2031
  8
0
 62
     1
 10
40.866537383460503
 20
4.4038404156072062
 30
0.0
 11
37.948952449485418
 21
4.4038404156072062
 31
0.0
  0
SOLID
  5
2032
  8
0
 62
     1
 10
34.251367515510353
 20
4.4338404156072064
 30
0.0
 11
34.251367515510353
 21
4.373840415607205
 31
0.0
 12
34.07136751551036
 22
4.4038404156072062
 32
0.0
 13
34.07136751551036
 23
4.4038404156072062
 33
0.0
  0
SOLID
  5
2033
  8
0
 62
     1
 10
40.866537383460503
 20
4.4338404156072064
 30
0.0
 11
40.866537383460503
 21
4.373840415607205
 31
0.0
 12
41.046537383460489
 22
4.4038404156072062
 32
0.0
 13
41.046537383460489
 23
4.4038404156072062
 33
0.0
  0
INSERT
  5
2034
  8
0
  2
*U38
 10
0.0
 20
0.0
 30
0.0
  0
LINE
  5
2035
  8
0
 62
     1
 10
34.008867515510353
 20
2.241924792230114
 30
0.0
 11
33.18889463621931
 21
2.241924792230114
 31
0.0
  0
LINE
  5
2036
  8
0
 62
     1
 10
34.008867515510353
 20
3.8408188051303238
 30
0.0
 11
33.18889463621931
 21
3.8408188051303238
 31
0.0
  0
LINE
  5
2037
  8
0
 62
     1
 10
33.368894636219309
 20
2.421924792230115
 30
0.0
 11
33.368894636219309
 21
2.861371798680219
 31
0.0
  0
LINE
  5
2038
  8
0
 62
     1
 10
33.368894636219309
 20
3.6608188051303241
 30
0.0
 11
33.368894636219309
 21
3.2213717986802202
 31
0.0
  0
SOLID
  5
2039
  8
0
 62
     1
 10
33.338894636219308
 20
2.421924792230115
 30
0.0
 11
33.39889463621931
 21
2.421924792230115
 31
0.0
 12
33.368894636219309
 22
2.241924792230114
 32
0.0
 13
33.368894636219309
 23
2.241924792230114
 33
0.0
  0
SOLID
  5
203A
  8
0
 62
     1
 10
33.338894636219308
 20
3.6608188051303241
 30
0.0
 11
33.39889463621931
 21
3.6608188051303241
 31
0.0
 12
33.368894636219309
 22
3.8408188051303238
 32
0.0
 13
33.368894636219309
 23
3.8408188051303238
 33
0.0
  0
INSERT
  5
203B
  8
0
  2
*U39
 10
0.0
 20
0.0
 30
0.0
  0
LINE
  5
203D
  8
0
 62
     1
 10
30.338658782311938
 20
-2.6713442526245199
 30
0.0
 11
29.241066109694771
 21
-3.5651884372965541
 31
0.0
  0
LINE
  5
203E
  8
0
 62
     1
 10
29.241066109694771
 20
-3.5651884372965541
 30
0.0
 11
28.983820552479639
 21
-3.5651884372965541
 31
0.0
  0
INSERT
  5
203F
  8
0
  2
*U40
 10
0.0
 20
0.0
 30
0.0
  0
CIRCLE
  5
2040
  8
0
 10
30.338658782311931
 20
-2.671344252624519
 30
0.0
 40
0.0084015083566342
  0
INSERT
  5
2044
  8
0
  6
CONTINUOUS
  2
*U41
 10
0.0
 20
0.0
 30
0.0
1001
ACAD
1002
{
1000
R14_HATCH_DATA
1000
2044
1011
1.0
1021
0.0
1031
0.0
1021
0.0
1031
0.0
1011
0.0
1021
0.0
1031
0.0
1021
1.0
1031
0.0
1011
0.0
1021
0.0
1031
0.0
1021
0.0
1031
1.0
1040
0.0
1010
0.0
1020
0.0
1030
1.0
1000
SOLID
1070
     1
1070
     1
1071
        1
1071
        7
1070
     1
1070
     1
1071
        2
1040
30.347060290668569
1040
-2.671344252624519
1040
1.0
1040
30.330257273955301
1040
-2.671344252624519
1040
1.0
1071
        1
1005
2040
1070
     0
1070
     1
1040
0.000429853426805
1071
        1
1040
30.338792599022039
1040
-2.669399060309035
1040
0.0
1002
}
  0
CIRCLE
  5
2045
  8
0
 10
30.1875
 20
-2.3147836682018759
 30
0.0
 40
0.094
  0
CIRCLE
  5
2046
  8
0
 10
31.744282877845521
 20
-2.8381183191324562
 30
0.0
 40
0.094
  0
LINE
  5
2047
  8
0
 10
35.463282877845529
 20
-2.707161785056138
 30
0.0
 11
35.916330467539836
 21
-2.6087633913746942
 31
0.0
  0
LINE
  5
2048
  8
0
 10
35.936281387930372
 20
-2.7006217648393429
 30
0.0
 11
35.916330467539836
 21
-2.6087633913746942
 31
0.0
  0
LINE
  5
2049
  8
0
 10
35.463282877845529
 20
-2.8033533424148209
 30
0.0
 11
35.936281387930372
 21
-2.7006217648393429
 31
0.0
  0
INSERT
  5
204D
  8
0
  2
*U42
 10
0.0
 20
0.0
 30
0.0
  0
INSERT
  5
2050
  8
0
  2
*U43
 10
0.0
 20
0.0
 30
0.0
  0
LINE
  5
2057
  8
0
 10
35.10565393099796
 20
-5.5645295540832631
 30
0.0
 11
35.10565393099796
 21
-5.6243982656905569
 31
0.0
1001
ACAD
1000
ASC_BOUNDS
1002
{
1070
    19
1005
205D
1002
}
  0
INSERT
  5
205D
  8
0
  6
CONTINUOUS
  2
*X44
 10
0.0
 20
0.0
 30
0.0
1001
ACAD
1000
HATCH
1002
{
1070
    19
1000
FLEX
1040
0.5
1040
0.0
1000
ASC_BOUNDS
1070
     1
1070
     1
1070
     4
1005
2057
1005
1225
1005
123B
1005
1224
1000
ASC_SEEDPOINT
1011
33.470971639453438
1021
0.0
1031
0.0
1021
-5.5833216889596642
1031
0.0
1000
R14_HATCH_DATA
1000
205D
1011
1.0
1021
0.0
1031
0.0
1021
0.0
1031
0.0
1011
0.0
1021
0.0
1031
0.0
1021
1.0
1031
0.0
1011
0.0
1021
0.0
1031
0.0
1021
0.0
1031
1.0
1040
0.0
1010
0.0
1020
0.0
1030
1.0
1000
FLEX
1070
     0
1070
     1
1071
        1
1071
        7
1070
     1
1070
     1
1071
        4
1040
35.10565393099796
1040
-5.5645295540832631
1040
0.0026522671892179
1040
31.963282877845529
1040
-5.316183825406255
1040
0.0
1040
31.963282877845529
1040
-5.8727439943676227
1040
0.0026522671892179
1040
35.10565393099796
1040
-5.6243982656905569
1040
0.0
1071
        4
1005
1224
1005
123B
1005
1225
1005
2057
1070
     0
1070
     1
1040
0.0
1040
0.5
1070
     0
1070
     2
1040
0.0
1040
0.0
1040
0.0
1040
0.0
1040
0.125
1070
     2
1040
0.125
1040
-0.125
1040
0.7853981633974483
1040
0.125
1040
0.0
1040
0.0
1040
0.124999999790246
1070
     4
1040
0.03125
1040
-0.1142766955
1040
0.03125
1040
-0.1767766955
1040
0.0072917963655941
1071
        1
1040
33.470971639453438
1040
-5.5833216889596642
1040
0.0
1002
}
  0
INSERT
  5
2062
  8
0
  6
CONTINUOUS
  2
*X45
 10
0.0
 20
0.0
 30
0.0
1001
ACAD
1000
HATCH
1002
{
1070
    19
1000
FLEX
1040
0.5
1040
0.0
1000
ASC_BOUNDS
1070
     1
1070
     1
1070
     4
1005
123C
1005
1225
1005
123A
1005
1224
1000
ASC_SEEDPOINT
1011
30.447889850209389
1021
0.0
1031
0.0
1021
-5.5570010453774961
1031
0.0
1000
R14_HATCH_DATA
1000
2062
1011
1.0
1021
0.0
1031
0.0
1021
0.0
1031
0.0
1011
0.0
1021
0.0
1031
0.0
1021
1.0
1031
0.0
1011
0.0
1021
0.0
1031
0.0
1021
0.0
1031
1.0
1040
0.0
1010
0.0
1020
0.0
1030
1.0
1000
FLEX
1070
     0
1070
     1
1071
        1
1071
        7
1070
     1
1070
     1
1071
        4
1040
31.838282877845518
1040
-5.3069983514799901
1040
0.0017088418563875
1040
29.812282877845529
1040
-5.1655094903360901
1040
0.0
1040
29.812282877845529
1040
-6.0234183294378436
1040
0.0017088418563875
1040
31.838282877845529
1040
-5.8819294682939471
1040
0.0
1071
        4
1005
1224
1005
123A
1005
1225
1005
123C
1070
     0
1070
     1
1040
0.0
1040
0.5
1070
     0
1070
     2
1040
0.0
1040
0.0
1040
0.0
1040
0.0
1040
0.125
1070
     2
1040
0.125
1040
-0.125
1040
0.7853981633974483
1040
0.125
1040
0.0
1040
0.0
1040
0.124999999790246
1070
     4
1040
0.03125
1040
-0.1142766955
1040
0.03125
1040
-0.1767766955
1040
0.0092505374736058
1071
        1
1040
30.447889850209389
1040
-5.5570010453774961
1040
0.0
1002
}
  0
LINE
  5
2063
  8
0
 62
     1
 10
31.413242992874931
 20
-6.8403281646667207
 30
0.0
 11
31.138008851188459
 21
-6.8403281646667207
 31
0.0
  0
LINE
  5
2064
  8
0
 62
     1
 10
30.338658782311931
 20
-5.602736805134148
 30
0.0
 11
31.413242992874931
 21
-6.8403281646667207
 31
0.0
  0
INSERT
  5
2065
  8
0
  2
*U46
 10
0.0
 20
0.0
 30
0.0
  0
INSERT
  5
2066
  8
0
  6
CONTINUOUS
  2
*U47
 10
0.0
 20
0.0
 30
0.0
1001
ACAD
1002
{
1000
R14_HATCH_DATA
1000
2066
1011
1.0
1021
0.0
1031
0.0
1021
0.0
1031
0.0
1011
0.0
1021
0.0
1031
0.0
1021
1.0
1031
0.0
1011
0.0
1021
0.0
1031
0.0
1021
0.0
1031
1.0
1040
0.0
1010
0.0
1020
0.0
1030
1.0
1000
SOLID
1070
     1
1070
     1
1071
        1
1071
        7
1070
     1
1070
     1
1071
        2
1040
30.330257273955301
1040
-5.602736805134148
1040
1.0
1040
30.347060290668569
1040
-5.602736805134148
1040
1.0
1071
        1
1005
2067
1070
     0
1070
     1
1040
0.000429853426805
1071
        1
1040
30.336710335049968
1040
-5.6026644634208083
1040
0.0
1002
}
  0
CIRCLE
  5
2067
  8
0
 10
30.338658782311931
 20
-5.602736805134148
 30
0.0
 40
0.0084015083566342
  0
LINE
  5
2068
  8
0
 62
     1
 10
32.650834352407493
 20
-5.7657439541037361
 30
0.0
 11
31.413242992874931
 21
-6.8403281646667207
 31
0.0
  0
CIRCLE
  5
2069
  8
0
 10
32.650834352407493
 20
-5.765743954103737
 30
0.0
 40
0.0084015083566342
  0
INSERT
  5
206A
  8
0
  6
CONTINUOUS
  2
*U48
 10
0.0
 20
0.0
 30
0.0
1001
ACAD
1002
{
1000
R14_HATCH_DATA
1000
206A
1011
1.0
1021
0.0
1031
0.0
1021
0.0
1031
0.0
1011
0.0
1021
0.0
1031
0.0
1021
1.0
1031
0.0
1011
0.0
1021
0.0
1031
0.0
1021
0.0
1031
1.0
1040
0.0
1010
0.0
1020
0.0
1030
1.0
1000
SOLID
1070
     1
1070
     1
1071
        1
1071
        7
1070
     1
1070
     1
1071
        2
1040
32.65923586076412
1040
-5.765743954103737
1040
1.0
1040
32.642432844050852
1040
-5.765743954103737
1040
1.0
1071
        1
1005
2069
1070
     0
1070
     1
1040
0.000429853426805
1071
        1
1040
32.650906694120827
1040
-5.7637955068417774
1040
0.0
1002
}
  0
INSERT
  5
206D
  8
0
  2
*U49
 10
0.0
 20
0.0
 30
0.0
  0
SOLID
  5
2070
  8
0
 62
     1
 10
31.252825357582971
 20
-3.206760093743636
 30
0.0
 11
31.29571251648364
 21
-3.164799497925316
 31
0.0
 12
31.14838714957834
 22
-3.057118319132456
 32
0.0
 13
31.14838714957834
 23
-3.057118319132456
 33
0.0
  0
LINE
  5
2071
  8
0
 62
     1
 10
31.274268937033298
 20
-3.1857797958344758
 30
0.0
 11
32.571114261929011
 21
-4.5112617255766594
 31
0.0
  0
LINE
  5
2072
  8
0
 62
     1
 10
32.571114261929011
 20
-4.5112617255766594
 30
0.0
 11
32.325816502535829
 21
-4.5112617255766594
 31
0.0
  0
INSERT
  5
2073
  8
0
  2
*U50
 10
0.0
 20
0.0
 30
0.0
  0
LINE
  5
2092
  8
0
 10
37.283474554763721
 20
1.271410100141465
 30
0.0
 11
37.346474554763731
 21
1.271410100141465
 31
0.0
  0
LINE
  5
2093
  8
0
 10
36.483474554763717
 20
1.2077838817855999
 30
0.0
 11
36.546474554763741
 21
1.2077838817855999
 31
0.0
  0
ARC
  5
20B1
  8
0
 10
38.567530213194928
 20
-14.418231201385099
 30
0.0
 40
15.678801641901201
 50
82.980931322858922
 51
94.096916291669487
  0
POLYLINE
  5
20E7
  8
0
 66
     1
 10
0.0
 20
0.0
 30
0.0
  0
VERTEX
  5
28B2
  8
0
 10
37.447377654280423
 20
1.220505293960078
 30
0.0
 42
0.0013716828191906
  0
VERTEX
  5
28B3
  8
0
 10
37.138821874611011
 20
1.1950105035487011
 30
0.0
 42
0.0038593065769413
  0
VERTEX
  5
28B4
  8
0
 10
36.919013237674577
 20
1.174531139944972
 30
0.0
 42
-0.0045309256346575
  0
VERTEX
  5
28B5
  8
0
 10
36.731762515730708
 20
1.1573388361775501
 30
0.0
 42
-0.0082297625354966
  0
VERTEX
  5
28B6
  8
0
 10
36.62647719325458
 20
1.15037601542584
 30
0.0
 42
-0.004757711746275
  0
VERTEX
  5
28B7
  8
0
 10
36.444114309350297
 20
1.1430662447168121
 30
0.0
 42
-0.0116170964054925
  0
VERTEX
  5
28B8
  8
0
 10
36.332483650490609
 20
1.1422497961557601
 30
0.0
 42
-0.0069446468659338
  0
VERTEX
  5
28B9
  8
0
 10
36.145840570154441
 20
1.1478149967869691
 30
0.0
 42
-0.0182519769324274
  0
VERTEX
  5
28BA
  8
0
 10
36.025327285735273
 20
1.157500632487465
 30
0.0
 42
-0.0223171955352331
  0
VERTEX
  5
28BB
  8
0
 10
35.927716263544802
 20
1.1733857144802891
 30
0.0
 42
-0.0366099579938259
  0
VERTEX
  5
28BC
  8
0
 10
35.8666012355296
 20
1.190902620387126
 30
0.0
 42
-0.0485687496218958
  0
VERTEX
  5
28BD
  8
0
 10
35.823393376546072
 20
1.211741740375551
 30
0.0
 42
-0.0343081363074897
  0
VERTEX
  5
28BE
  8
0
 10
35.796678771653923
 20
1.23061410942975
 30
0.0
 42
-0.0239454416046
  0
VERTEX
  5
28BF
  8
0
 10
35.761825649962176
 20
1.2618996048094431
 30
0.0
 42
-0.0345120015243552
  0
VERTEX
  5
28C0
  8
0
 10
35.738528179014871
 20
1.2883337674010411
 30
0.0
 42
-0.1266159255256214
  0
VERTEX
  5
28C1
  8
0
 10
35.734719033887231
 20
1.2973051710700421
 30
0.0
 42
-0.1209339054158921
  0
VERTEX
  5
28C2
  8
0
 10
35.735706020519231
 20
1.3081129475612261
 30
0.0
 42
-0.1129662622463228
  0
VERTEX
  5
28C3
  8
0
 10
35.741834121075492
 20
1.3179584391573651
 30
0.0
 42
-0.005185509899332
  0
VERTEX
  5
28C4
  8
0
 10
35.754346475404532
 20
1.330304278535464
 30
0.0
 42
-0.0041337055122091
  0
VERTEX
  5
28C5
  8
0
 10
35.770328302016409
 20
1.345496096177305
 30
0.0
 42
-0.0013436922857112
  0
VERTEX
  5
28C6
  8
0
 10
35.787646685737869
 20
1.361600966025577
 30
0.0
 42
-0.000765187681382
  0
VERTEX
  5
28C7
  8
0
 10
35.818177254454149
 20
1.389753041341883
 30
0.0
 42
-0.0216755096268563
  0
VERTEX
  5
28C8
  8
0
 10
35.87900656478314
 20
1.44099034616633
 30
0.0
 42
-0.0175132761742561
  0
VERTEX
  5
28C9
  8
0
 10
35.959013085128383
 20
1.498306893410243
 30
0.0
 42
-0.0397977937330234
  0
VERTEX
  5
28CA
  8
0
 10
36.020091631654331
 20
1.5322371798147141
 30
0.0
 42
-0.0243868400717028
  0
VERTEX
  5
28CB
  8
0
 10
36.125929615294268
 20
1.5743572419141909
 30
0.0
 42
-0.0251192024945955
  0
VERTEX
  5
28CC
  8
0
 10
36.258318829422016
 20
1.6123920795416831
 30
0.0
 42
-0.0245135317071438
  0
VERTEX
  5
28CD
  8
0
 10
36.397169032458891
 20
1.6377326002975661
 30
0.0
 42
-0.0141608932027415
  0
VERTEX
  5
28CE
  8
0
 10
36.602654330831598
 20
1.6590098814248
 30
0.0
 42
-0.013464047564461
  0
VERTEX
  5
28CF
  8
0
 10
36.819676524481572
 20
1.669420254002971
 30
0.0
 42
-0.0052515359597886
  0
VERTEX
  5
28D0
  8
0
 10
37.023958511514131
 20
1.671565901578669
 30
0.0
 42
-0.0068930193029853
  0
VERTEX
  5
28D1
  8
0
 10
37.179590284305021
 20
1.669420254002971
 30
0.0
 42
-0.0108148442795155
  0
VERTEX
  5
28D2
  8
0
 10
37.517398801035057
 20
1.6527864869589011
 30
0.0
 42
-0.0096677294846212
  0
VERTEX
  5
28D3
  8
0
 10
37.894201770892067
 20
1.618719987685294
 30
0.0
 42
-0.0050756841154664
  0
VERTEX
  5
28D4
  8
0
 10
38.248058322243033
 20
1.5761777276059861
 30
0.0
 42
-0.0064574698825886
  0
VERTEX
  5
28D5
  8
0
 10
38.525354947880132
 20
1.536332067662215
 30
0.0
 42
-0.0040026387879283
  0
VERTEX
  5
28D6
  8
0
 10
39.035088457604793
 20
1.4521685748372359
 30
0.0
 42
-0.0068996784446323
  0
VERTEX
  5
28D7
  8
0
 10
39.329669364671531
 20
1.3969063607748911
 30
0.0
 42
-0.0002795673261389
  0
VERTEX
  5
28D8
  8
0
 10
39.455210349761401
 20
1.3714842118457971
 30
0.0
 42
0.0000702851647227
  0
VERTEX
  5
28D9
  8
0
 10
39.954521652783782
 20
1.270155694980708
 30
0.0
 42
0.0004194379224737
  0
VERTEX
  5
28DA
  8
0
 10
40.124538210051469
 20
1.235826465739279
 30
0.0
 42
0.0001987236181886
  0
VERTEX
  5
28DB
  8
0
 10
40.483474554763831
 20
1.163812862758802
 30
0.0
  0
SEQEND
  5
28DC
  8
0
  0
LINE
  5
2114
  8
0
 10
38.120474554763732
 20
1.5288796599217891
 30
0.0
 11
38.183474554763713
 21
1.5288796599217891
 31
0.0
  0
SOLID
  5
211A
  8
0
 62
     1
 10
10.62635948691053
 20
-5.8822656703074196
 30
0.0
 11
10.63447572867069
 21
-5.9417141910601741
 31
0.0
 12
10.80876317004887
 22
-5.8876412054033169
 32
0.0
 13
10.80876317004887
 23
-5.8876412054033169
 33
0.0
  0
LINE
  5
211B
  8
0
 62
     1
 10
10.63041760779061
 20
-5.9119899306837969
 30
0.0
 11
9.3248236731124035
 21
-6.0902368555907742
 31
0.0
  0
LINE
  5
211C
  8
0
 62
     1
 10
9.3248236731124035
 20
-6.0902368555907742
 30
0.0
 11
8.8414236185490136
 21
-6.0902368555907742
 31
0.0
  0
INSERT
  5
211D
  8
0
  2
*U51
 10
0.0
 20
0.0
 30
0.0
  0
POLYLINE
  5
211E
  8
0
 66
     1
 10
0.0
 20
0.0
 30
0.0
 70
     1
  0
VERTEX
  5
28DD
  8
0
 10
37.919128922590048
 20
-5.5977977541343611
 30
0.0
  0
VERTEX
  5
28DE
  8
0
 10
41.154826228401973
 20
-5.5977977541343611
 30
0.0
  0
VERTEX
  5
28DF
  8
0
 10
41.154826228401973
 20
-6.589126867564417
 30
0.0
  0
VERTEX
  5
28E0
  8
0
 10
37.919128922590048
 20
-6.589126867564417
 30
0.0
  0
SEQEND
  5
28E1
  8
0
  0
LINE
  5
212E
  8
0
 62
     1
 10
36.790630886195849
 20
3.2318181460065949
 30
0.0
 11
37.570816793664022
 21
3.2318181460065949
 31
0.0
  0
LINE
  5
212F
  8
0
 62
     1
 10
36.790630886195842
 20
2.8509254513538429
 30
0.0
 11
37.570816793664022
 21
2.850925451353842
 31
0.0
  0
LINE
  5
2130
  8
0
 62
     1
 10
37.390816793664023
 20
3.4118181460065951
 30
0.0
 11
37.390816793664023
 21
3.5918181460065961
 31
0.0
  0
LINE
  5
2131
  8
0
 62
     1
 10
37.390816793664023
 20
2.6709254513538432
 30
0.0
 11
37.390816793664023
 21
2.490925451353843
 31
0.0
  0
SOLID
  5
2132
  8
0
 62
     1
 10
37.360816793664021
 20
3.4118181460065951
 30
0.0
 11
37.420816793664017
 21
3.4118181460065951
 31
0.0
 12
37.390816793664023
 22
3.2318181460065949
 32
0.0
 13
37.390816793664023
 23
3.2318181460065949
 33
0.0
  0
SOLID
  5
2133
  8
0
 62
     1
 10
37.360816793664021
 20
2.6709254513538432
 30
0.0
 11
37.420816793664017
 21
2.6709254513538432
 31
0.0
 12
37.390816793664023
 22
2.850925451353842
 32
0.0
 13
37.390816793664023
 23
2.850925451353842
 33
0.0
  0
INSERT
  5
2134
  8
0
  2
*U52
 10
0.0
 20
0.0
 30
0.0
  0
LINE
  5
2146
  8
0
 10
32.194204376039998
 20
0.6678203521669603
 30
0.0
 11
33.414811029745977
 21
2.0539833232530591
 31
0.0
  0
LINE
  5
214C
  8
0
 62
     1
 10
34.528391790512622
 20
14.19473955457422
 30
0.0
 11
37.445976724487693
 21
14.19473955457422
 31
0.0
  0
LINE
  5
214D
  8
0
 10
34.348391790512622
 20
12.03282393119712
 30
0.0
 11
37.792114341972443
 21
12.82221651573022
 31
0.0
  0
LINE
  5
214E
  8
0
 10
34.348391790512622
 20
13.631717944097341
 30
0.0
 11
37.792114341972443
 21
12.84232535956424
 31
0.0
  0
LINE
  5
214F
  8
0
 62
     1
 10
41.143561658462772
 20
14.19473955457422
 30
0.0
 11
38.225976724487701
 21
14.19473955457422
 31
0.0
  0
LINE
  5
2150
  8
0
 10
37.879839107002951
 20
12.84232535956424
 30
0.0
 11
41.323561658462751
 21
13.631717944097341
 31
0.0
  0
LINE
  5
2151
  8
0
 10
37.879839107002951
 20
12.82221651573022
 30
0.0
 11
41.323561658462751
 21
12.03282393119712
 31
0.0
  0
LINE
  5
2152
  8
0
 10
37.005155161198132
 20
12.64182459032086
 30
0.0
 11
38.666798287777283
 21
12.64182459032086
 31
0.0
  0
LINE
  5
2153
  8
0
 10
37.005155161198132
 20
13.022717284973609
 30
0.0
 11
38.666798287777283
 21
13.022717284973609
 31
0.0
  0
LINE
  5
2154
  8
0
 62
     1
 10
37.067655161198111
 20
12.64182459032086
 30
0.0
 11
37.847841068666291
 21
12.64182459032085
 31
0.0
  0
SOLID
  5
2155
  8
0
 62
     1
 10
37.63784106866629
 20
12.46182459032085
 30
0.0
 11
37.697841068666293
 21
12.46182459032085
 31
0.0
 12
37.667841068666291
 22
12.64182459032085
 32
0.0
 13
37.667841068666291
 23
12.64182459032085
 33
0.0
  0
LINE
  5
2156
  8
0
 62
     1
 10
37.667841068666291
 20
12.46182459032085
 30
0.0
 11
37.667841068666291
 21
12.28182459032085
 31
0.0
  0
CIRCLE
  5
2157
  8
0
 10
37.835976724487693
 20
12.83227093764723
 30
0.0
 40
0.045
  0
CIRCLE
  5
2158
  8
0
 10
37.835976724487693
 20
12.83227093764723
 30
0.0
 40
0.03
  0
INSERT
  5
2159
  8
0
  2
*U53
 10
0.0
 20
0.0
 30
0.0
  0
LINE
  5
215A
  8
0
 62
     1
 10
37.067655161198118
 20
13.022717284973609
 30
0.0
 11
37.847841068666291
 21
13.022717284973609
 31
0.0
  0
LINE
  5
215B
  8
0
 62
     1
 10
37.667841068666291
 20
13.202717284973611
 30
0.0
 11
37.667841068666291
 21
13.38271728497361
 31
0.0
  0
SOLID
  5
215C
  8
0
 62
     1
 10
37.63784106866629
 20
13.202717284973611
 30
0.0
 11
37.697841068666293
 21
13.202717284973611
 31
0.0
 12
37.667841068666291
 22
13.022717284973609
 32
0.0
 13
37.667841068666291
 23
13.022717284973609
 33
0.0
  0
INSERT
  5
215D
  8
0
  2
*U54
 10
0.0
 20
0.0
 30
0.0
  0
LINE
  5
215E
  8
0
 10
41.323561658462751
 20
12.03282393119712
 30
0.0
 11
41.323561658462751
 21
13.631717944097341
 31
0.0
  0
LINE
  5
215F
  8
0
 62
     1
 10
41.323561658462751
 20
13.69421794409733
 30
0.0
 11
41.323561658462751
 21
14.374739554574219
 31
0.0
  0
SOLID
  5
2160
  8
0
 62
     1
 10
41.143561658462772
 20
14.224739554574221
 30
0.0
 11
41.143561658462772
 21
14.16473955457421
 31
0.0
 12
41.323561658462751
 22
14.19473955457422
 32
0.0
 13
41.323561658462751
 23
14.19473955457422
 33
0.0
  0
LINE
  5
2161
  8
0
 62
     1
 10
34.285891790512622
 20
13.631717944097341
 30
0.0
 11
33.465918911221593
 21
13.631717944097341
 31
0.0
  0
SOLID
  5
2162
  8
0
 62
     1
 10
33.615918911221577
 20
12.21282393119712
 30
0.0
 11
33.675918911221601
 21
12.21282393119712
 31
0.0
 12
33.645918911221592
 22
12.03282393119712
 32
0.0
 13
33.645918911221592
 23
12.03282393119712
 33
0.0
  0
LINE
  5
2163
  8
0
 62
     1
 10
33.645918911221592
 20
12.21282393119712
 30
0.0
 11
33.645918911221592
 21
12.652270937647231
 31
0.0
  0
INSERT
  5
2164
  8
0
  2
*U55
 10
0.0
 20
0.0
 30
0.0
  0
LINE
  5
2165
  8
0
 62
     1
 10
33.645918911221592
 20
13.451717944097339
 30
0.0
 11
33.645918911221592
 21
13.01227093764723
 31
0.0
  0
SOLID
  5
2166
  8
0
 62
     1
 10
33.615918911221577
 20
13.451717944097339
 30
0.0
 11
33.675918911221601
 21
13.451717944097339
 31
0.0
 12
33.645918911221592
 22
13.631717944097341
 32
0.0
 13
33.645918911221592
 23
13.631717944097341
 33
0.0
  0
LINE
  5
2167
  8
0
 62
     1
 10
34.285891790512622
 20
12.03282393119712
 30
0.0
 11
33.465918911221593
 21
12.03282393119712
 31
0.0
  0
LINE
  5
2168
  8
0
 10
34.348391790512622
 20
12.03282393119712
 30
0.0
 11
34.348391790512622
 21
13.631717944097341
 31
0.0
  0
LINE
  5
2169
  8
0
 62
     1
 10
34.348391790512622
 20
13.69421794409733
 30
0.0
 11
34.348391790512622
 21
14.374739554574219
 31
0.0
  0
SOLID
  5
216A
  8
0
 62
     1
 10
34.528391790512622
 20
14.224739554574221
 30
0.0
 11
34.528391790512622
 21
14.16473955457421
 31
0.0
 12
34.348391790512622
 22
14.19473955457422
 32
0.0
 13
34.348391790512622
 23
14.19473955457422
 33
0.0
  0
INSERT
  5
216B
  8
0
  2
*U56
 10
0.0
 20
0.0
 30
0.0
  0
LINE
  5
216C
  8
0
 10
25.513198803941421
 20
13.64457204485065
 30
0.0
 11
28.956921355401231
 21
12.85517946031756
 31
0.0
  0
LINE
  5
216D
  8
0
 10
25.513198803941421
 20
12.045678031950439
 30
0.0
 11
28.956921355401231
 21
12.83507061648354
 31
0.0
  0
LINE
  5
216E
  8
0
 10
28.169962174626932
 20
13.03557138572692
 30
0.0
 11
29.831605301206078
 21
13.03557138572692
 31
0.0
  0
LINE
  5
216F
  8
0
 10
28.169962174626932
 20
12.654678691074171
 30
0.0
 11
29.831605301206078
 21
12.654678691074171
 31
0.0
  0
LINE
  5
2170
  8
0
 10
29.044646120431761
 20
12.83507061648354
 30
0.0
 11
32.488368671891571
 21
12.045678031950439
 31
0.0
  0
LINE
  5
2171
  8
0
 10
29.044646120431761
 20
12.85517946031756
 30
0.0
 11
32.488368671891571
 21
13.64457204485065
 31
0.0
  0
LINE
  5
2172
  8
0
 62
     1
 10
28.23246217462691
 20
12.654678691074171
 30
0.0
 11
29.01264808209509
 21
12.654678691074171
 31
0.0
  0
SOLID
  5
2173
  8
0
 62
     1
 10
28.802648082095089
 20
12.474678691074169
 30
0.0
 11
28.862648082095092
 21
12.474678691074169
 31
0.0
 12
28.832648082095091
 22
12.654678691074171
 32
0.0
 13
28.832648082095091
 23
12.654678691074171
 33
0.0
  0
LINE
  5
2174
  8
0
 62
     1
 10
28.832648082095091
 20
12.474678691074169
 30
0.0
 11
28.832648082095091
 21
12.29467869107417
 31
0.0
  0
CIRCLE
  5
2175
  8
0
 10
29.000783737916489
 20
12.84512503840055
 30
0.0
 40
0.03
  0
CIRCLE
  5
2176
  8
0
 10
29.000783737916489
 20
12.84512503840055
 30
0.0
 40
0.045
  0
LINE
  5
2177
  8
0
 62
     1
 10
28.232462174626921
 20
13.03557138572692
 30
0.0
 11
29.01264808209509
 21
13.03557138572692
 31
0.0
  0
INSERT
  5
2178
  8
0
  2
*U57
 10
0.0
 20
0.0
 30
0.0
  0
LINE
  5
2179
  8
0
 62
     1
 10
28.832648082095091
 20
13.215571385726919
 30
0.0
 11
28.832648082095091
 21
13.395571385726919
 31
0.0
  0
SOLID
  5
217A
  8
0
 62
     1
 10
28.802648082095089
 20
13.215571385726919
 30
0.0
 11
28.862648082095092
 21
13.215571385726919
 31
0.0
 12
28.832648082095091
 22
13.03557138572692
 32
0.0
 13
28.832648082095091
 23
13.03557138572692
 33
0.0
  0
LINE
  5
217B
  8
0
 10
25.513198803941421
 20
12.045678031950439
 30
0.0
 11
25.513198803941421
 21
13.64457204485065
 31
0.0
  0
LINE
  5
217C
  8
0
 10
32.488368671891571
 20
12.045678031950439
 30
0.0
 11
32.488368671891571
 21
13.64457204485065
 31
0.0
  0
LINE
  5
217F
  8
0
 62
     1
 10
25.693198803941421
 20
14.20759365532753
 30
0.0
 11
28.610783737916488
 21
14.20759365532753
 31
0.0
  0
SOLID
  5
2180
  8
0
 62
     1
 10
25.693198803941421
 20
14.23759365532754
 30
0.0
 11
25.693198803941421
 21
14.177593655327531
 31
0.0
 12
25.513198803941421
 22
14.20759365532753
 32
0.0
 13
25.513198803941421
 23
14.20759365532753
 33
0.0
  0
LINE
  5
2181
  8
0
 62
     1
 10
25.513198803941421
 20
13.70707204485065
 30
0.0
 11
25.513198803941421
 21
14.38759365532753
 31
0.0
  0
INSERT
  5
2182
  8
0
  2
*U58
 10
0.0
 20
0.0
 30
0.0
  0
LINE
  5
2183
  8
0
 62
     1
 10
32.308368671891557
 20
14.20759365532753
 30
0.0
 11
29.3907837379165
 21
14.20759365532753
 31
0.0
  0
INSERT
  5
2184
  8
0
  2
*U59
 10
0.0
 20
0.0
 30
0.0
  0
LINE
  5
2185
  8
0
 62
     1
 10
32.488368671891571
 20
13.70707204485065
 30
0.0
 11
32.488368671891571
 21
14.38759365532753
 31
0.0
  0
SOLID
  5
2186
  8
0
 62
     1
 10
32.308368671891557
 20
14.23759365532754
 30
0.0
 11
32.308368671891557
 21
14.177593655327531
 31
0.0
 12
32.488368671891571
 22
14.20759365532753
 32
0.0
 13
32.488368671891571
 23
14.20759365532753
 33
0.0
  0
INSERT
  5
2187
  8
0
  2
*U60
 10
0.0
 20
0.0
 30
0.0
  0
LINE
  5
2188
  8
0
 62
     1
 10
25.450698803941421
 20
12.045678031950439
 30
0.0
 11
24.630725924650388
 21
12.045678031950439
 31
0.0
  0
SOLID
  5
2189
  8
0
 62
     1
 10
24.78072592465038
 20
12.225678031950441
 30
0.0
 11
24.840725924650389
 21
12.225678031950441
 31
0.0
 12
24.810725924650381
 22
12.045678031950439
 32
0.0
 13
24.810725924650381
 23
12.045678031950439
 33
0.0
  0
LINE
  5
218A
  8
0
 62
     1
 10
24.810725924650381
 20
12.225678031950441
 30
0.0
 11
24.810725924650381
 21
12.66512503840055
 31
0.0
  0
LINE
  5
218B
  8
0
 62
     1
 10
25.450698803941421
 20
13.64457204485065
 30
0.0
 11
24.630725924650388
 21
13.64457204485065
 31
0.0
  0
LINE
  5
218C
  8
0
 62
     1
 10
24.810725924650381
 20
13.46457204485065
 30
0.0
 11
24.810725924650381
 21
13.025125038400549
 31
0.0
  0
SOLID
  5
218D
  8
0
 62
     1
 10
24.78072592465038
 20
13.46457204485065
 30
0.0
 11
24.840725924650389
 21
13.46457204485065
 31
0.0
 12
24.810725924650381
 22
13.64457204485065
 32
0.0
 13
24.810725924650381
 23
13.64457204485065
 33
0.0
  0
INSERT
  5
218E
  8
0
  2
*U61
 10
0.0
 20
0.0
 30
0.0
  0
INSERT
  5
218F
  8
0
  2
*U62
 10
0.0
 20
0.0
 30
0.0
  0
ENDSEC
  0
EOF
